Song name
# A B C D E F G H I J K L M N O P Q R S T U V W X Y Z

No Trend - Family Style tab

        I am pretty sure everything here is correct. It was all done by ear. This is 
actually played on the bass but sound the same on the guitar. Plus I don't think anyone 
could truly tab No Trend's guitar parts. Ha Ha.


Main Riff
E|--------------------------------------------------------------------------|
B|--------------------------------------------------------------------------|
G|--------------------------------------------------------------------------|
D|--------------------------------------------------------------------------|
A|--------------------------------------------------------------------------|
E|--7--7--0--0--3--3--5--5--7--7--0--0--3--3--5--5--7--7--0--0--3--3--5--5--|


       Played at the end of the main riff every time. [Riff Bridge we'll call it]
E|--------------------------|
B|--------------------------|
G|--------------------------|
D|--------------------------|
A|--------------------------|
E|--3--3--3--3--3--3--3--3--|


           Play 3 times but only after the main riff is played twice. (we'll call it the 
main bridge]
E|--------------------------------------------------|
B|--------------------------------------------------|
G|--------------------------------------------------|
D|--------------------------------------------------|
A|--5--5--5--5--3--3--3--3--6--6--6--6--6--6--6--6--|
E|--------------------------------------------------|


  Play after the main ridge and repeat everything throughout the song.
E|-----------------------------------------|
B|-----------------------------------------|
G|-----------------------------------------|
D|-----------------------------------------|
A|-----------------------------------------|
E|--7--7--7--7--7--7--7--7--7--7--7--7--7--|
Tap to rate this tab
# A B C D E F G H I J K L M N O P Q R S T U V W X Y Z