Song name
# A B C D E F G H I J K L M N O P Q R S T U V W X Y Z

No Trigger - Neon National Park tab

------------------------------------------------------------------------------           
          Neon National Park - No Trigger

Tabbed by:Steve Paton
Email:stevepaton_10@hotmail.com
Whole song for guitar #1, in song there are two guitars

x= palm/ place fingers over the fret before x  Example  5x
                                                        5x
                                                        5x
(  = stop strings
>>>>>>= let note ring

Tuning:Drop D

   Intro

e|------------------------------------------------------------------------------|
B|------------------------------------------------------------------------------|
G|------------------------------------------------------------------------------|
D|---5----3----5------5----3---5---5-5---5-5---8---8--8----3----5----5----5-----|
A|---5----3----5------5----3---5---5-5---5-5--------6---6--6----1----3----5-----|
D|---5----3----5------5--- 3---5---5-5---5-5------------------------------5-----|

e|-------------------------------------------|----------------------------------|
B|-------------------------------------------|----------------------------------|
G|-------------------------------------------|----------------------------------|
D|---5---3-----8---8-8---8-8----3---3-3--3-3-|----------------------------------|
A|---5---3-----8---8-8---8-8----3---3-3--3-3-|----------------------------------|
D|---5---3-----8---8-8---8-8----3---3-3--3-3------------------------------------|

e|------------------------------------------------------------------------------|
B|------------------------------------------------------------------------------|
G|----------------------------10--10--------10---12-----------------------------|
D|---12--12----10--10---12--------------12--------------12--12---10--10---12----|
A|------------------------------------------------------------------------------|
D|------------------------------------------------------------------------------|

e|-------------------------------------------|--------------------------------|
B|-------------------------------------------|--------------------------------|
G|---15--15--14---12---10--------------------|--------------------------------|
D|--------------------------12->>>>>>>>------|----x2--------------------------|
A|-------------------------------------------|--------------------------------|
D|-------------------------------------------|--------------------------------|

    Verse #1

e|--------------------------------------------------------------------------------|
B|--------------------------------------------------------------------------------|
G|--------------------------------------------------------------------------------|
D|-----5x-x-x-x-x-x-x-x-x-x-------3x-x-x-x-x-x-x-x-x-x----8--8-8--8--8-8----------|
A|-6-5-5x-x-x-x-x-x-x-x-x-x-------3x-x-x-x-x-x-x-x-x-x----8--8-8--8--8-8----------|
D|-----5x-x-x x-x-x-x-x-x-x------ 3x-x-x-x-x-x-x-x-x-x----8--8-8--8--8-8----------|

e|------------------------------------------------------------------------------|
B|------------------------------------------------------------------------------|
G|------------------------------------------------------------------------------|
D|---10--10-10--10--10-10---------8--8-8-8-8-8-8-8-8-8-8-8-8-8~10---------------|
A|---10--10-10--10--10-10----x1---6--6-6-6-6-6-6-6-6-6-6-6-6-6~8----------------|
D|---10--10-10--10--10-10-------------------------------------------------------|

e|-------------------------------------------------------------------------------------|
B|-------------------------------------------------------------------------------------|
G|-------------------------------------------------------------------------------------|
D|-3--3-3--3-3-3--3-3-3--3-3-3--8-88888888888888-10101010101010101010101010------------|
A|-1--1-1--1-1-1--1-1-1--1-1-1--6 66666666666666--8-888888888888888--------------------|
D|----------------------------------------------------------------------------|Riff #1-|

e|----------------------------------------------|--------------------------------|
B|----------------------------------------------|--------------------------------|
G|----------------------------------------------|-12-10--12--14--12->>>>>--------|
D|--5--5-5--5-5-5---8-8-8-8-10--3--3-3---3-3-3--|--------------------------------|
A|--5--5-5--5-5-5---8-8-8-8-10--3--3-3---3-3-3--|--------------------------------|
D|--5--5-5--5-5-5---8-8-8-8-10--3--3-3---3-3-3--|--------------------------------|
  Riff #2

|e|--10--6------8--------------------------|---------------------------------

B|-----------8------10--6---11---8---------|------------------------------------|
G|-----------------------------------8---10|------------------------------------|
D|-----------------------------------------|------------------------------------|
A|-----------------------------------------|------------------------------------|
D|-----------------------------------------|------------------------------------|

e|------------------------------------------------------------------------------|
B|------------------------------------------------------------------------------|
G|------------------------------------------------------------------------------|
D|---5--5-5--5-5-5--8-8-8-8-8--10--3-------5-------5(---------------------------|
A|---5--5-5--5-5-5--8-8-8-8-8--10--3-------5-------5(---------------------------|
D|---5--5-5--5-5-5--8-8-8-8-8--10--3-------5-------5(---------------------------|

   Verse #2

e|------------------------------------------------------------------------------|
B|------------------------------------------------------------------------------|
G|------------------------------------------------------------------------------|
D|--8-8-8-3-3-3-----------------------------------------------------------------|
A|--8-8-8-3-3-3-----------------6-5---------------------------------------------|
D|--8-8-8-3-3-3----5-55-555-555-----5-55-555-555-555--3-333-333-333-333---------|

|e|--------------------------------|   |-----------------------------------------|
B|---------------------------------|   |-----------------------------------------|
G|---------------------------------|   |-----------------------------------------|
D|---------------------------------| 1x|8-88888888888~10-------------------------|
A|--8-8-8-8-8-8--10-10-10-10-10-10 |   |6-66666666666~8--------------------------|
D|--8-8-8-8-8-8--10-10-10-10-10-10-|   |-----------------------------------------|

e|------------------------------------------------------------------------------|
B|------------------------------------------------------------------------------|
G|------------------------------------------------------------------------------|
D|-3--3-3--3-3-3--3-3-3--3-3-3--8--8-8--8-8-8--8-8-8--8~7-----------------------|
A|-1--1-1--1-1-1--1-1-1--1-1-1--6--6-6--6-6-6--6-6-6--6~5-----------------------|
D|------------------------------------------------------------------------------|

e|------------------------------------------------------------------------------|
B|------------------------------------------------------------------------------|
G|------------------------------------------------------------------------------|
D|10-10-10-101010--101010-101010------------------------------------------------|
A|-8--8-8--8-8-8---8-8-8--8-8-8-------------------------------------------------|
D|------------------------------------------------------------------------------|

                                                   Riff #1

e|----------------------------------------------|--------------------------------|
B|----------------------------------------------|--------------------------------|
G|----------------------------------------------|-12-10--12--14--12--------------|
D|--5--5-5--5-5-5---8-8-8-8-10--3--3-3---3-3-3--|--------------------------------|
A|--5--5-5--5-5-5---8-8-8-8-10--3--3-3---3-3-3--|--------------------------------|
D|--5--5-5--5-5-5---8-8-8-8-10--3--3-3---3-3-3--|--------------------------------|
    Riff#2

|e|--10--6------8--------------------------|---------------------------------

B|-----------8------10--6---11---8---------|------------------------------------|
G|-----------------------------------8---10|------------------------------------|
D|-----------------------------------------|------------------------------------|
A|-----------------------------------------|------------------------------------|
D|-----------------------------------------|------------------------------------|


e|------------------------------------------------------------------------------|
B|------------------------------------------------------------------------------|
G|------------------------------------------------------------------------------|
D|---5--5-5--5-5-5--8-8-8-8-8--10--3--------15----------------------------------|
A|---5--5-5--5-5-5--8-8-8-8-8--10--3--------15----------------------------------|
D|---5--5-5--5-5-5--8-8-8-8-8--10--3--------15----------------------------------|

  Solo

e|--11--10------15--13------11---10-------10---8--------11---10------10h11------|
B|---------11-----------11------------11-----------10------------11-------------|
G|------------------------------------------------------------------------------|
D|------------------------------------------------------------------------------|
A|------------------------------------------------------------------------------|
D|------------------------------------------------------------------------------|

e|------------------6-----10--8-------------------------------------------------|
B|--11--8--6---6h8-----8---------1x -11>>>>>>-----------------------------------|
G|------------------------------------------------------------------------------|
D|--------------------------------------------------5>>>>>>>>>------------------|
A|--------------------------------------------------5>>>>>>>>-------------------|
D|--------------------------------------------------5>>>>>>>>>------------------|
    Riff#2

|e|--10--6------8-----------------------------------------------------------

B|-----------8------10--6---11---8---------------------------------------------|
G|-----------------------------------8---10-->>>>>>>>--------------------------|
D|-----------------------------------------------------------------------------|
A|-----------------------------------------------------------------------------|
D|-----------------------------------------------------------------------------|

e|------------------------------------------------------------------------------|
B|------------------------------------------------------------------------------|
G|-------------------------------------------------------3>>>>>>>>--------------|
D|---5--5-5--5-5-5--8-8-8-8-8--10--3--------15>>>>>>>>>--3>>>>>>>>--------------|
A|---5--5-5--5-5-5--8-8-8-8-8--10--3--------15>>>>>>>>>--1>>>>>>>>>-------------|
D|---5--5-5--5-5-5--8-8-8-8-8--10--3--------15>>>>>>>>>-------------------------|
Tap to rate this tab
# A B C D E F G H I J K L M N O P Q R S T U V W X Y Z