Song name
# A B C D E F G H I J K L M N O P Q R S T U V W X Y Z

No Trigger - More To Offer tab

No Trigger- More To Offer

Intro- 0:00
|---------------------------------|
|---------------------------------|
|--7-5-7-10-7-5-------------------|
|------------------10---7--101010-|
|--5-3-5-8--5-3---8----7---8-8-8--|
|----------------8----7-----------|

Intro 00:14
|----------------------------------------------------------------------------|
|----------------------------------------------------------------------------|
|----------------------------------------------------------------------------|
|--777777777777-5555-777777777777-10101010-3333333333333333------------------|
|--555555555555-3333-555555555555-8-8-8-8--1111111111111111-5555555555555555-|
|-----------------------------------------------------------5555555555555555-|

Part 2 00:33
|----------------------------|
|-----------------------5----|
|-------------------777---5--|
|--7777777-------------------|
|--5555555-333333------------|
|----------333333------------|

Verse 00:38
|-------------------------------------|
|-------------------------------------|
|-------------------------------------|
|--7777777777777777----------55555555-|
|--5555555555555555-33333333-33333333-|
|-------------------33333333----------|

Before Chorus 00:55
|--------------------------|
|--------------------------|
|--10101010-9999-7777-9999-|
|--------------------------|
|--8-8-8-8--7777-5555-7777-|
|--------------------------|

Chorus 00:58
|----------------------------------|
|----------------------------------|
|----------------------------------|
|--77757-3-5757-3-77757-3----------|
|--55535-1-3535-1-55535-1-33333333-|
|-------------------------33333333-|

|-----------------------------------|
|-----------------------------------|
|-----------------------------------|
|-5555555555555555-3333333333333333-|
|-3333333333333333-1111111111111111-|
|-----------------------------------|

01:18
|-------------------------|
|-------------------------|
|-------------------------|
|--2222222-3333333-xxxx-5-|
|--0000000-1111111-xxxx-3-|
|-------------------------|

Verse
Chorus

Breakdown 02:08
|----------------------------------|
|----3---5---6---1---3---5---6---8-|
|----------------------------------|
|--00--00--00--00--00--00--00--00--|
|----------------------------------|
|----------------------------------|

|----------------------------|
|----3---5---6---1-----------|
|----------------------------|
|--00--00--00--00--77777777--|
|------------------55555555--|
|----------------------------|

Bridge 2:18
|------------------------------------------------------------------------|
|------------------------------------------------------------------------|
|------------------------------------------------------------------------|
|--3333333333333333-7777777777777777-3333333333333333-55555555-777777777-|
|--1111111111111111-5555555555555555-1111111111111111-33333333-555555555-|
|------------------------------------------------------------------------|

Solo 2:27
|--1>>>>>55------------|
|----------565---------|
|-------------507050---|
|-------------------57-|
|----------------------|
|----------------------|

Chorus

I hope this is all good. It actually my first official tab done. Any troubles e-mail me 
jmarner@bigpond.com. Enjoy all the hard work! NO TRIGGER RULE!!!!!!!!!!
Catch!
Tap to rate this tab
# A B C D E F G H I J K L M N O P Q R S T U V W X Y Z