Song name
# A B C D E F G H I J K L M N O P Q R S T U V W X Y Z

No Trigger - Bust Tropical tab

No Trigger- Bust Tropical

Intro
|------------------------------------------------------------|
|------------------------------------------------------------|
|------------------------------------------------------------|
|-5555-8888-12-10-8-10101010-5555-8888-13131313-12121212-----|
|-3333-6666-10-8--6-8-8-8-8--3333-6666-11111111-10101010-x2--|
|------------------------------------------------------------|

Verse
|---------------------------------------|
|---------------------------------------|
|---------------------------------------|
|-13-12-8-10--555-----------------------|
|-11-10-6-8---333-66666666-33333333-----|
|-----------------66666666-33333333-x2--|

Chorus
|------------------------|
|------------------------|
|------------------------|
|-55---------55----------|
|-33-66-8888-33-66-3333--|
|----66-8888----66-3333--|

end of chorus
|-----------------------|
|-----------------------|
|-----------------------|
|--55-------------------|
|--33-66-8888-33333-36--|
|-----66-8888-33333-36--|

Verse 2
|----------------------------------------------|
|----------------------------------------------|
|----------------------------------------------|
|--5----13-12-8-10--555-------555--------------|
|--3----11-10-6-8---333-66666-333-33333333-----|
|-----------------------66666-----33333333-x2--|

Pre-Chorus
|----------------------|
|----------------------|
|----------------------|
|----------------------|
|--333333333-6666-8888-|
|--333333333-6666-8888-|

Chorus
|------------------------|
|------------------------|
|------------------------|
|-55---------55----------|
|-33-66-8888-33-66-3333--|
|----66-8888----66-3333--|

end of chorus
|-----------------------|
|-----------------------|
|-----------------------|
|--55-------------------|
|--33-66-8888-33333-36--|
|-----66-8888-33333-36--|

Bridge
|----------------------------------------------------------------------|
|----------------------------------------------------------------------|
|--------------------------------------------------101213151215171820--|
|--5---5---------------------------------------------------------------|
|--3---3---8---6---8---66666666-88888888-66666666--8-1011131113151618--|
|----------8---6---8---66666666-88888888-66666666----------------------|

Breakdown
|-----------------------------------------------------------------------------|
|-----------------------------------------------------------------------------|
|-----------------------------------------------------------------------------|
|--55555555----------55555555-----------55555555----------55555555------------|
|--33333333-66666666-33333333-3333-8888-33333333-66666666-33333333-3333-8888--|
|-----------66666666----------3333-8888----------66666666----------3333-8888--|

End
|----------------|
|----------------|
|----------------|
|----------------|
|--8-8-3--8-8-6--|
|--8-8-3--8-8-6--|

2nd tab! ALl done. Any problems again email me at jmarner@bigpond.com.
Thanks! GO NO TRIGGER!
Tap to rate this tab
 
# A B C D E F G H I J K L M N O P Q R S T U V W X Y Z