Song name
# A B C D E F G H I J K L M N O P Q R S T U V W X Y Z

No Use For A Name - Take It Home tab

Help us improve GuitareTab! Take a short survey!
Song: Take It Home
Band: No Use For A Name
Album: The Feelgood Record Of The Year (2008)
Tabbed by: Unbroken (unbroken@liveunderground.de)

Tuning: Standard
Comments: Please listen to the CD for correct timing


INTRO (GUITAR 1)

e|------------------------------------------------------------|
B|------------------------------------------------------------|
G|--------------------------7-4----------------4--------------| 
D|-7-6-4-2---(4X)---7-6-4-2-7-4-2--7-6-4-2-7-6-4--------------|
A|-7-7-4-2----------7-7-4-2-5-2-2--7-7-4-2-7-7-2--------------|
E|-5-4-2------------5-4-2----------5-4-2---5-4----------------|

INTRO (GUITAR 2)

e|------------------------------------------------------------|
B|------------------------------------------------------------|
G|-14-13---------------------------14-13--------14-13-16------|
D|-------16-14---(5X)--------------------16-14----------------|
A|------------------------------------------------------------|
E|------------------------------------------------------------|

REFRAIN

e|------------------------------------------------------------|
B|------------------------------------------------------------|
G|-7-------4------7-------4-----------------------------------|
D|-7-7-2-4-4-7-2--7-7-2-4-4-2---------------------------------|
A|-5-7-2-4-2-7-2--5-7-2-4-2-2---------------------------------|
E|---5---2---5------5---2-------------------------------------|


Have Fun! :-)
Related for Take It Home tab