Song name
# A B C D E F G H I J K L M N O P Q R S T U V W X Y Z

No Use For A Name - A Postcard Would Be Nice tab

-------------------------------------------------------------------------------
			     A Postcard Would Be Nice - No Use For A Name
-------------------------------------------------------------------------------
Tabbed by: Joe_1980s
Email: joe_1980s@arcor.de
Album: Making Friends
Tuning: Standard

| .  palm mute
| ~  let ring
| +  harmonic


Verse 1
e|---+---------------------------------------------------------------|
B|---+---------------------------------------------------------------|
G|---+---6-----------8-----------6-----------8-----------8-----------|
D|---+---6---6---4---8---6---4---6---6---4---8---6---4---8---4---8---|
A|---+---4---6---4---6---6---4---4---6---4---6---6---4---6---4---8---|
E|---+-------4---2-------4---2-------4---2-------4---2-------2---6---|

Chorus
e|-------------------------------+---|
B|-------------------------------+---|
G|---6-------8-----------8---6---+---|
D|---6---4---8---6---4---8---6---+---|
A|---4---4---6---6---4---6---4---+---|
E|-------2-------4---2-----------+---|

Verse 2
e|---------------------------------------------------------------|
B|---------------------------------------------------------------|
G|---6-----------8-----------6-----------8-----------8-----------|
D|---6---6---4---8---6---4---6---6---4---8---6---4---8---6---8---|
A|---4---6---4---6---6---4---4---6---4---6---6---4---6---6---8---|
E|-------4---2-------4---2-------4---2-------4---2-------4---6---|

Chorus
e|-------------------------------|
B|-------------------------------|
G|---6-------8-----------8---6---|
D|---6---4---8---6---4---8---6---|
A|---4---4---6---6---4---6---4---|
E|-------2-------4---2-----------|

Bridge
e|-------------------------------------------+---|
B|-------------------------------------------+---|
G|-------6---------------6-------------------+---|
D|---4---6---3---8---4---6---6---8---6---4---+---|
A|---4---4---3---8---4---4---6---8---6---4---+---|
E|---2-------1---6---2-------4---6---4---2---+---|

Verse 3
e|---------------------------------------------------------------|
B|---------------------------------------------------------------|
G|---6-----------8-----------6-----------8-----------8-----------|
D|---6---6---4---8---6---4---6---6---4---8---6---4---8---6---8---|
A|---4---6---4---6---6---4---4---6---4---6---6---4---6---6---8---|
E|-------4---2-------4---2-------4---2-------4---2-------4---6---|

Outro
e|---------------------------------------------------------------------------|
B|---------------------------------------------------------------------------|
G|---6-------8-----------8---6---5-------8---6---5-------8---6-------6---6~--|
D|---6---4---8---6---4---8---6---5---4---8---6---5---4---8---6---6---6---6~--|
A|---4---4---6---6---4---6---4---3---4---6---4---3---4---6---4---6---4---4~--|
E|-------2-------4---2---------------2---------------2-----------4-----------|
                                                                 .   .

Thats it. Have fun!



===============================================================================
Tap to rate this tab
 
# A B C D E F G H I J K L M N O P Q R S T U V W X Y Z