Song name
# A B C D E F G H I J K L M N O P Q R S T U V W X Y Z

No Use For A Name - I Want To Be Wrong tab

No Use For a Name
"I want to be wrong" from "The Feel Good Album of The Year" 2008

intro
*play 6x  #play 3-4x  "play 3x palm muted
e|---------------------------------------------------->
B|----*-------*----*----------#--#---*-------*------*->
G|--10--9-7--9---12---10-9--10--9--10---9-7-5--7-7-9-->
D|---x--x-x--x----x----x-x---x--x---x---x-x-x--x-x-x-->
A|---8--7-5--7---10----8-7---8--7---8---7-5-3--5-5-7-->
E|---------------------------------------------------->

>|-----------------------------|
>|---------#---*---------------|
>|-10-10-12--14----------------|
>|--x--x--x---x----"--"--------|
>|--8--8-10--12---5--3---"--"--|
>|----------------------6--5---|

verse
*play 6-8x  #play 3-4x
e|--------------------------------------|
B|---*-----------#---#-----*------------|
G|--7---*--*--*-7--5----*-5---*--#---#--|
D|--7--7--7--7--7--5---8--5--7--8--10---|
A|--5--7--7--7--5--3---8--3--7--8--10---|
E|-----5--5--5---------6-----5--6---8---|

chorus
*play 6-8x  #play 3-4x  "play 3x palm muted
e|-----------------------------------------------|
B|---------#--#-------*---*----------------------|
G|---*--*-7--5---*--14--12---#---#---------------|
D|--3--7--7--5--8----x------8--10---"--"---------|
A|--3--7--5--3--8---12--10--8--10--5--3----------|
E|--1--5--------6-----------6---8--------6"--5"--|

Repeat verse x1, chorusx1

Bridge
*play 6-8x
e|----------------------------------------------*---*--->
B|--------------------------------------------10--10---->
G|---------------------------------------------7---7---->
D|------------------------------------------------------>
A|-5-0-0-5-0-0-0-0-3-0-0-0-0---------5-0-0-5------------>
E|---------------------------3-3-1-1-------------------->

>|---------------------------------------------|
>|---------------------------------*-----------|
>|--5--7--9--10--12--14--16--17--18------------|
>|--x--x--x---x---x---x---x---x---x-----<<<<---|
>|--3--5--7---8--10--12--14--15--16-----<<<<---|
>|---------------------------------------------|

"Are you confusing me...."
*play 6-8x  #play 3-4x
e|---------------------------------------------|
B|---*--*-------------------------#--#---------|
G|--7--5---*--*---*---*---*---*--7--5----------|
D|--7--5--7--8--10--12--12--10---7--5----------|
A|--5--3--7--8--10--12--12--10---5--3----------|
E|--------5--6---8---9--10---8-----------------|

Repear chorus x1

Outro
#play 4x
e|------------------------------------------------|
B|---------------------------------------#--------|
G|-------------------------------------18--///----|
D|--------------------------------------x---------|
A|-5-0-0-5-0-0-0-0-3-0-0-0-0-----------16--///----|
E|---------------------------3-3-1-1--------------|

I dont want to be wrong now!! xD
Tabbed by Julianfx 11/07/08
Any comments to fenix_txpx@hotmail.com
Tap to rate this tab
 
# A B C D E F G H I J K L M N O P Q R S T U V W X Y Z