Song name
# A B C D E F G H I J K L M N O P Q R S T U V W X Y Z

No Use For A Name - Turning Japanese tab

I Looked at the other tabs here, but i really didn't like them, so
i made my own. This is a song that sounds hard, but is quite easy.
I hope you enjoy it.

It consists of two guitar players, the rythym is hard to hear, but it's there.


Turning Japanese - No Use for a Name (originally by The Vapors)
__________________________________________________________
Guitar 1 - Rhythm

Intro
e)------------------------|
B)--8-8-8-8--6-6--3-3--6--|
G)--7-7-7-7--5-5--2-2--5--|
D)------------------------|
A)------------------------|
E)------------------------|


Verse - Palm Muted
e)------------------------|
B)------------------------|
G)--5---------------5--7--|
D)--5----7-------7--3--5--|
A)--3----7-------7--3--5--|
E)-------5-------5--------|


Chorus
e)-----------------|
B)-----------------|
G)------7-------5--|
D)--5---7---3---5--|
A)--5---5---3---3--|
E)--3-------1------|


Pre-bridge
e)-------------------------------------------------------------|
B)-------------------------------------------------------------|
G)-----------------5--9--5-5-5--9-9--7-7-----5--9--5-5-5--9-7--|
D)--7--5--3--5--7--5--9--5-5-5--9-9--7-7--7--5--9--5-5-5--9-7--|
A)--7--5--3--5--7--3--7--3-3-3--7-7--5-5--7--3--7--3-3-3--7-5--|
E)--5--3--1--3--5-------------------------5--------------------|


Bridge
e)--------------------------------------|
B)--------------------------------------|
G)--9-------------------------9---------|
D)--10-(8x)--7-------10-------10-(4x)---|
A)--10-------7-(4x)--10-(8x)--10--------|
E)--8--------5-------8--------8---------|

e)--------------------------------------|
B)--------------------------------------|
G)--5---------7-------6---------9-------|
D)--5-(lots)--7-(4x)--7---------10------|
A)--3---------5-------7-(lots)--10-(4x)-|
E)--------------------5---------8-------|

Solo - Same as chorus.

Outro
e)--------------------------|
B)--------------------------|
G)-----------------7-7-7-7--|
D)--7--5--3--5--7--7-7-7-7--|
A)--7--5--3--5--7--5-5-5-5--|
E)--5--3--1--3--5-----------|

______________________________________________________________________
Guitar 2 - Lead

Intro
e)--15-15-15-15--13-13--10-10--13----|
B)--15-15-15-15--13-13--10-10--13----|
G)-----------------------------------|
D)-----------------------------------|
A)-----------------------------------|
E)-----------------------------------|


Verse
e)-------------------------------------|
B)----------13p12----------------------|
G)--12-X-12------12--9-X-9-------------|
D)--12-X-12----------9-X-9-------------|
A)--10-X-10----------7-X-7--5-6-7~~~---|
E)-------------------------------------|


Pre-Chorus/Bridge (separate from guitar 1 part)
e)--------------------------------------------------|
B)--------------------------------------------------|
G)----5--9--5-5-5--9-9--7-7------5--9--5-5-5--9--7--|
D)-7--5--9--5-5-5--9-9--7-7---7--5--9--5-5-5--9--7--|
A)-7--3--7--3-3-3--7-7--5-5---7--3--7--3-3-3--7--5--|
E)-5--------------------------5---------------------|

e)--10-10-10-10--8-8--5-5--7-----|
B)--10-10-10-10--8-8--5-5--7-----|
G)-------------------------------|
D)-------------------------------|
A)-------------------------------|
E)-------------------------------|


Chorus
e)--------------------------------------------------------|
B)--------------------------------------------------------|
G)----7-7--------7-5-4---5~~-----5-5--------5-4-----4-----|
D)----7-7----5-7-------7---------5-5----5-7-----7-5-------|
A)----5-5--7---------------------3-3--7-------------------|
E)--------------------------------------------------------|

Solo
e)--12--10--12--10---7--10---7--7---5--5---3--5--|
B)--12--10--12--10---8--10---8--8---7--7---5--7--|
G)-----------------------------------------------|
D)-----------------------------------------------|
A)-----------------------------------------------|
E)-----------------------------------------------|

e)--5--3--5--3---0--3-----------------------|
B)--6--5--6--5---1--5-----1-3-5-7-8-10-12---|
G)------------------------------------------|
D)------------------------------------------|
A)------------------------------------------|
E)------------------------------------------|

Thats pretty much it. Send any questions to me at trickster386@adelphia.net
Tap to rate this tab
# A B C D E F G H I J K L M N O P Q R S T U V W X Y Z