Song name
# A B C D E F G H I J K L M N O P Q R S T U V W X Y Z

No Use For A Name - Secret tab

Help us improve GuitareTab! Take a short survey!
-------------------------------------------------------------------------------
			     Secret - No Use For A Name
-------------------------------------------------------------------------------
Tabbed by: Joe_1980s
Email: joe_1980s@arcor.de

Tuning: Half Step Down

| ~  let ring
| s  slide
| x  Mute note
| .  palm mute


Intro
e|-------------------|
B|-------------------|
G|-------7---5-------|
D|---5---7---5---5---|
A|---5---5---3---5---|
E|---3-----------3---|
     .   .   .   .

Riff 1
e|--------------------|
B|--------------------|
G|---9------------7---|
D|---9---10---5---7---|
A|---7---10---5---5---|
E|--------8---3-------|

Riff 2
e|-----------------------------|
B|-----------------------------|
G|---9------------7---8---11---|
D|---9---10---5---7---x----x---|
A|---7---10---5---5---6----9---|
E|--------8---3----------------|

Riff 3
e|-----------------------------|
B|-----------------------------|
G|---9------------7------------|
D|---9---10---5---7---10---9---|
A|---7---10---5---5---10---9---|
E|--------8---3--------8---7---|

Riff 4
e|-----------------------------------------|
B|-----------------------------------------|
G|-------7---5-------------7---5-----------|
D|---5---7---5---5-----5---7---5---5-s-4---|
A|---5---5---3---5-----5---5---3---5-s-4---|
E|---3-----------3-----3-----------3-s-2---|

Riff 5
e|-------------------------------------------------------------------------------|
B|-------------------------------------------------------------------------------|
G|---5---5---4---9---7-----5---4---9-------------5---7---4---9---7---5---7-------|
D|---5---5---4---9---7-----5---4---9---5---4-----5---7---4---9---7---5---7---5---|
A|---3---7---2---7---5-----3---2---7---5---4-----3---5---2---7---5---3---5---5---|
E|-------------------------------------3---2---------------------------------3---|

e|--------------------|
B|--------------------|
G|--------------------|
D|--------------------|
A|---10---9---7---5---|
E|--------------------|
     .    .   .   .

Riff 6
e|-------------------------------------|
B|-------------------------------------|
G|-------------------------------------|
D|-------------------------------------|
A|---10---9---10---9---7---5---7---9---|
E|-------------------------------------|
     .    .   .    .   .   .   .   .

Riff 7
e|-----------------------------------|
B|-----------------------------------|
G|---12---11---12---11---9---7---9---|
D|----x----x----x----x---x---x---x---|
A|---10----9---10----9---7---5---7---|
E|-----------------------------------|

Riff 8
e|-------------------------------------------------------------------------------|
B|-------------------------------------------------------------------------------|
G|---16---14---17---16---14---16---12---14---16---17---19---16---16-s-14-s-12~---|
D|----x----x----x----x----x----x----x----x----x----x----x----x----x-s--x-s--x~---|
A|---14---12---15---14---12---14---10---12---14---15---17---15---14-s-12-s-10~---|
E|-------------------------------------------------------------------------------|


Structur:
Intro x2
Riff 1
Riff 2
Riff 3
Riff 4
Riff 1
Riff 2
Riff 3
Riff 5
Riff 1
Riff 2
Riff 3
Riff 6 x2
Riff 7
Riff 8

Thats it. Have fun!
===============================================================================
Related for Secret tab