Guitaretab - guitar tabs
Song name
# A B C D E F G H I J K L M N O P Q R S T U V W X Y Z

No Use For A Name - Justified Black Eye tab

Guitar tabs for "Justified Black Eye"
 by No Use For A Name

Transcription by Moses Kim (aloneandaway@mail.ru)

 Standard tuning

 INTRO:

 1st Guitar:

|------------------------------------------------|
|----------------------------------------14--12--|
|12-----12--10--12--10--7-----9--12--15----------|
|------------------------------------------------|
|------------------------------------------------|
|------------------------------------------------|


|------------------------------------------------|
|------------------------------------------------|
|12-----12--10--12--10--7-----9--5----7--4-------|
|------------------------------------------------|
|------------------------------------------------|
|------------------------------------------------|


 2nd Guitar:
[ Tab from: http://www.guitaretab.com/n/no-use-for-a-name/32759.html ]
|--0-----------0---------------1-------------0---|
|--1-----------1---------------1-------------0---|
|--0-----------2---------------2-------------0---|
|--2-----------2---------------3-------------5---|
|--3-----------0---------------3-------------5---|
|--0-----------0---------------1-------------3---|
   She was confused  and     abused in this life.....


  END OF THE SONG:
|--1-----------0----------------0-------------0------|
|--1-----------0----------------1-------------1------|
|--2-----------0----------------0-------------2------|
|--3-----------5----------------2-------------2------|
|--3-----------5----------------3-------------0------|
|--1-----------3----------------0-------------0------|
Apologies    until tonight and then another  justified...


  OUTRO:

|--1-----------3----3--------------------------------|
|--1-----------3------3-------3----------------------|
|--2-----------4----------4--------------------------|
|--3-----------5----------5--------------------------|
|--3-----------5-------------------------------------|
|--1-----------3-------------------------------------|
Related for Justified Black Eye tab
Advertisement will be closed in 10 seconds