Song name
# A B C D E F G H I J K L M N O P Q R S T U V W X Y Z

No Use For A Name - Straight From The Jacket tab

Straight From The Jacket
No Use For A Name


Intro
e|--------------------------------------------------------------------------------|
B|--------------------------------------------------------------------------------|
G|--------------------------------------------------------------------------------|
D|--12/--8-8-8-8--4-4-4-4--11-11-11--7-7-7-7--8-8-8-8--4-4-4-4--6-6-6-6--3-3-3-3--|
A|--12/--8-8-8-8--4-4-4-4--11-11-11--7-7-7-7--8-8-8-8--4-4-4-4--6-6-6-6--3-3-3-3--|
E|--10/--6-6-6-6--2-2-2-2---9--9--9--5-5-5-5--6-6-6-6--2-2-2-2--4-4-4-4--1-1-1-1--|


Verse (“So sorry son.....”)
e|--------------------------------------------------------------------------------|
B|--------------------------------------------------------------------------------|
G|--------------------------------------------------------------------------------|
D|--12/--8-8-8-8--4-4-4-4--11-11-11--7-7-7-7--8-8-8-8--4-4-4-4--6-6-6-6--3-3-3-3--| x2
A|--12/--8-8-8-8--4-4-4-4--11-11-11--7-7-7-7--8-8-8-8--4-4-4-4--6-6-6-6--3-3-3-3--|
E|--10/--6-6-6-6--2-2-2-2---9--9--9--5-5-5-5--6-6-6-6--2-2-2-2--4-4-4-4--1-1-1-1--|  



e|----------------------------------------------------------|
B|----------------------------------------------------------|
G|----------------------------------------------------------|
D|--4-4-4-4-4-4-4--3-3-3-3-3-3-3-3--4-4-4-4-4-4-4-4--6-6-6--|
A|--4-4-4-4-4-4-4--3-3-3-3-3-3-3-3--4-4-4-4-4-4-4-4--6-6-6--|
E|--2-2-2-2-2-2-2--1-1-1-1-1-1-1-1--2-2-2-2-2-2-2-2--4-4-4--|

Verse (“Did you see your life.....”)

Chorus (“How does it feel.....”)

Solo
e|-------------------------------6--8----11^--11^p9--------|
B|--11^--11^p9~----11^--11^p9-8----------------------11v~--|
G|---------------------------------------------------------|
D|---------------------------------------------------------|
A|---------------------------------------------------------|
E|---------------------------------------------------------|

e|--11p9--10p8-------------------------------------------------|
B|--------------10p8----9--11--11------------------------------|
G|-------------------11------------8h10--10-10-10-8-10-10-10/--|
D|-------------------------------------------------------------|
A|-------------------------------------------------------------|
E|-------------------------------------------------------------|

e|-----------------------------------|
B|-----------------------------------|
G|--------8--10^--10^--9^--7h9-------|
D|--8~--11----------------------8v~--|
A|-----------------------------------|
E|-----------------------------------|


E|--11p9--11p9--11p9--9--9-11-11-11-11-11^--12--11-12^9--11/--|
B|------------------------------------------------------------|
G|------------------------------------------------------------|
D|------------------------------------------------------------|
A|------------------------------------------------------------|
E|------------------------------------------------------------|




Verse x2 (“So many times.....”) 
e|------------------------------------------------------------------------------|
B|------------------------------------------------------------------------------|
G|--8-8-8-8-8-8-8-8--7-7-7-7-7-7-7-7--10-10-10-10-10-10-10-10--8-8-8-8-8-8-8-8--|
D|--x-x-x-x-x-x-x-x--x-x-x-x-x-x-x-x---x--x--x--x--x--x--x--x--x-x-x-x-x-x-x-x--|
A|--6-6-6-6-6-6-6-6--5-5-5-5-5-5-5-5---8--8--8--8--8--8--8--8--6-6-6-6-6-6-6-6--|
E|------------------------------------------------------------------------------|
Pm.   . . . . . . .  . . . . . . . .  . . . . . . . .  . . . . . . . .   

e|---------------------------------------------------------------|
B|---------------------------------------------\5~-3~-2~-3~-2~/--|
G|--4-5-4-5-4-5---3~-2~-0~-2~----5-6-5-6-5-6---------------------|
D|---------------------------------------------------------------|
A|---------------------------------------------------------------|
E|---------------------------------------------------------------|


Fill (“Well you might have live here once.....”)
e|------------------------|
B|------------------------|
G|------------------------|
D|--4-4-4-4-4-4-4--6-6-6--|
A|--4-4-4-4-4-4-4--6-6-6--|
E|--2-2-2-2-2-2-2--4-4-4--|


Verse (“You don’t mean much to me.....”)

Chorus (“How does it feel.....”)
e|----------------------------|------------1st-------------|-----------2nd------------|
B|----------------------------|----------------------------|--------------------------|
G|----------------------------|--6-6-6-6-6-6---------------|--------------------------|
D|--4-4-4-4-4-4--3-3-3-3-3-3--|--6-6-6-6-6-6--6-6-6-6-6-6--|--4-4-4-4-4-4-4-4--6-6-6--|
A|--4-4-4-4-4-4--3-3-3-3-3-3--|--4-4-4-4-4-4--6-6-6-6-6-6--|--4-4-4-4-4-4-4-4--6-6-6--|
E|--2-2-2-2-2-2--1-1-1-1-1-1--|---------------4-4-4-4-4-4--|--2-2-2-2-2-2-2-2--4-4-4--|
Tap to rate this tab
# A B C D E F G H I J K L M N O P Q R S T U V W X Y Z