Song name
# A B C D E F G H I J K L M N O P Q R S T U V W X Y Z

No Use For A Name - Divine Let Down tab

-------------------------------------------------------------------------------
			   Divine Let Down - No Use For A Name
-------------------------------------------------------------------------------
Tabbed by: Duke Drizzt
Email: duke_drizzt@yahoo.com

Tuning: Standard


e|-0--0--0--0--0--0--0--0--2--2--2--2--2--2--2--2--4--4--4--4--4--4--4--4--5--5--5--5--5--5--5--5--|
B|-2--2--2--2--2--2--2--2--2--2--2--2--2--2--2--2--5--5--5--5--5--5--5--5--7--7--7--7--6--6--6--6--|
G|-2--2--2--2--2--2--2--2--2--2--2--2--2--2--2--2--6--6--6--6--6--6--6--6--7--7--7--7--7--7--7--7--|
D|-2--2--2--2--2--2--2--2--4--4--4--4--4--4--4--4--6--6--6--6--6--6--6--6--7--7--7--7--7--7--7--7--|
A|-0--0--0--0--0--0--0--0--4--4--4--4--4--4--4--4--4--4--4--4--4--4--4--4--5--5--5--5--5--5--5--5--|
E|-------------------------2--2--2--2--2--2--2--2--------------------------------------------------|
  
  "It's funny..........how blind faith often is used................like a net.........."
   

e|-0--0--0--0--0--0--0--0--2--2--2--2--2--2--2--2--4--4--4--4--4--4--4--4--5--5--5--5--4--4--4--4--|
B|-2--2--2--2--2--2--2--2--2--2--2--2--2--2--2--2--5--5--5--5--5--5--5--5--6--6--6--6--5--5--5--5--|
G|-2--2--2--2--2--2--2--2--2--2--2--2--2--2--2--2--6--6--6--6--6--6--6--6--7--7--7--7--6--6--6--6--|
D|-2--2--2--2--2--2--2--2--4--4--4--4--4--4--4--4--6--6--6--6--6--6--6--6--7--7--7--7--6--6--6--6--|
A|-0--0--0--0--0--0--0--0--4--4--4--4--4--4--4--4--4--4--4--4--4--4--4--4--5--5--5--5--4--4--4--4--|
E|-------------------------2--2--2--2--2--2--2--2--------------------------------------------------|

  "To fall on...........in desperate times like  a crutch..............for regret.....as a last re-"



e|-2--2--2--2--2--2--2--2--0--0--0--0--0--0--0--0--5--5--5--5--0--0--0--0--2--2--2--2--0--0--0--0--|
B|-4--4--4--4--4--4--4--4--0--0--0--0--0--0--0--0--5--5--5--5--0--0--0--0--2--2--2--2--0--0--0--0--|
G|-4--4--4--4--4--4--4--4--1--1--1--1--1--1--1--1--6--6--6--6--1--1--1--1--2--2--2--2--1--1--1--1--|
D|-4--4--4--4--4--4--4--4--2--2--2--2--2--2--2--2--7--7--7--7--2--2--2--2--4--4--4--4--2--2--2--2--|
A|-2--2--2--2--2--2--2--2--2--2--2--2--2--2--2--2--7--7--7--7--2--2--2--2--4--4--4--4--2--2--2--2--|
E|-------------------------0--0--0--0--0--0--0--0--5--5--5--5--0--0--0--0--2--2--2--2--0--0--0--0--|

  "sort ......I won't let emotion take me......and rely .......on this .....fence thats fallin...."
  

e|-5--5--5--5--5--5--5--5--0--0--0--0--0--0--0--0--|
B|-7--7--7--7--7--7--7--7--0--0--0--0--0--0--0--0--|
G|-7--7--7--7--7--7--7--7--1--1--1--1--1--1--1--1--|
D|-7--7--7--7--7--7--7--7--2--2--2--2--2--2--2--2--|
A|-5--5--5--5--5--5--5--5--2--2--2--2--2--2--2--2--|
E|-------------------------0--0--0--0--0--0--0--0--|

  "on...................my head................."



Repeat for 2nd Verse


2nd verse:
Guilt is an entity of it's own fall from grace
And self worth is their reminder to feel out of place
in your own room another excuse to divide us and keep the siege at bay 
as long as thoughts are supressed we'll think the same
Tap to rate this tab
 
# A B C D E F G H I J K L M N O P Q R S T U V W X Y Z