Song name
# A B C D E F G H I J K L M N O P Q R S T U V W X Y Z

No Use For A Name - Sign The Bill tab

Band: No Use for a Name
Song: Sign the Bill
Album: Incognito

This tab is intended for www.ultimate-guitar.com
12/27/05

Guitar: Tony Sly

Tony records over rhythm guitar in this song.

Intro:
E|------------------------------------------------------------|
B|------------------------------------------------------------|
G|--------5-7-8-----------------------------------------------|
D|-5-5--5-5-7-8-8-8--8-8-8--8---------------------------------|
A|-5-5--5-3-5-6-8-8--8-8-8--8---------------------------------|
E|-3-3--3-------6-6--6-6-6--6---------------------------------| x4
An extra guitar plays the first two G chords every time this part
is played in the song

Verse:
(0:11)
E|------------------------------------------------------------|
B|------------------------------------------------------------|
G|--------5-7-8-----------------------------------------------|
D|-5-5--5-5-7-8-8-8--8-8-8--8---------------------------------|
A|-5-5--5-3-5-6-8-8--8-8-8--8---------------------------------|
E|-3-3--3-------6-6--6-6-6--6---------------------------------| x4

Chorus:
(0:21)
E|------------------------------------------------------------|
B|------------------------------------------------------------|
G|-5-5--5-5-5--8-8-8--7-7-7--------------5-7-8----------5-7-8-|
D|-5-5--5-5-5--8-8-8--7-7-7--5-5--555555-5-7-8-5-555555-5-7-8-|
A|-3-3--3-3-3--6-6-6--5-5-5--5-5--555555-3-5-6-5-555555-3-5-6-|
E|---------------------------3-3--333333-------3-333333-------|
Palm-muted: ----------------------^    ^---------^    ^

(0:26)
E|------------------------------------------------------------|
B|------------------------------------------------------------|
G|-5-5--5-5-5--8-8-8--7-7-7-----------------------------------|
D|-5-5--5-5-5--8-8-8--7-7-7--5-5--555555----------------------|
A|-3-3--3-3-3--6-6-6--5-5-5--5-5--555555----------------------|
E|---------------------------3-3--333333----------------------|
Palm-muted: ----------------------^    ^

(0:29)
E|------------------------------------------------------------|
B|------------------------------------------------------------|
G|-5-7-8------------------------------------------------------|
D|-5-7-8--5--555555-------------------------------------------|
A|-3-5-6--5--555555-------------------------------------------|
E|--------3--333333-------------------------------------------| x2
Palm-muted: -^    ^

(0:32)
E|------------------------------------------------------------|
B|------------------------------------------------------------|
G|-5-7-8------------------------------------------------------|
D|-5-7-8------------------------------------------------------|
A|-3-5-6------------------------------------------------------|
E|------------------------------------------------------------|

(0:33)
E|------------------------------------------------------------|
B|------------------------------------------------------------|
G|-3--3-------------------------------------------------------|
D|-3--3--3--3-------------------------------------------------|
A|-1--1--3--3-------------------------------------------------|
E|-------1--1-------------------------------------------------|

(0:34)
E|------------------------------------------------------------|
B|------------------------------------------------------------|
G|--------5-7-8-----------------------------------------------|
D|-5-5--5-5-7-8-8-8--8-8-8--8---------------------------------|
A|-5-5--5-3-5-6-8-8--8-8-8--8---------------------------------|
E|-3-3--3-------6-6--6-6-6--6---------------------------------| x4

Verse:
(0:45)
E|------------------------------------------------------------|
B|------------------------------------------------------------|
G|--------5-7-8-----------------------------------------------|
D|-5-5--5-5-7-8-8-8--8-8-8--8---------------------------------|
A|-5-5--5-3-5-6-8-8--8-8-8--8---------------------------------|
E|-3-3--3-------6-6--6-6-6--6---------------------------------| x4


Chorus:
(0:55)
E|------------------------------------------------------------|
B|------------------------------------------------------------|
G|-5-5--5-5-5--8-8-8--7-7-7--------------5-7-8----------5-7-8-|
D|-5-5--5-5-5--8-8-8--7-7-7--5-5--555555-5-7-8-5-555555-5-7-8-|
A|-3-3--3-3-3--6-6-6--5-5-5--5-5--555555-3-5-6-5-555555-3-5-6-|
E|---------------------------3-3--333333-------3-333333-------|
Palm-muted: ----------------------^    ^---------^    ^

(1:00)
E|------------------------------------------------------------|
B|------------------------------------------------------------|
G|-5-5--5-5-5--8-8-8--7-7-7-----------------------------------|
D|-5-5--5-5-5--8-8-8--7-7-7--5-5--555555----------------------|
A|-3-3--3-3-3--6-6-6--5-5-5--5-5--555555----------------------|
E|---------------------------3-3--333333----------------------|
Palm-muted: ----------------------^    ^

(1:04)
E|------------------------------------------------------------|
B|------------------------------------------------------------|
G|-5-7-8------------------------------------------------------|
D|-5-7-8--5--555555-------------------------------------------|
A|-3-5-6--5--555555-------------------------------------------|
E|--------3--333333-------------------------------------------| x2
Palm-muted: -^    ^

(1:06)
E|------------------------------------------------------------|
B|------------------------------------------------------------|
G|-5-7-8------------------------------------------------------|
D|-5-7-8------------------------------------------------------|
A|-3-5-6------------------------------------------------------|
E|------------------------------------------------------------|

(1:07)
E|------------------------------------------------------------|
B|------------------------------------------------------------|
G|-3--3-------------------------------------------------------|
D|-3--3--3--3-------------------------------------------------|
A|-1--1--3--3-------------------------------------------------|
E|-------1--1-------------------------------------------------|

Bridge:
(1:08)
E|------------------------------------------------------------|
B|------------------------------------------------------------|
G|-12-12--12-12-12--10-10-10--10-10-10--9-9-9--9-9-9----------|
D|-x--x---x--x--x---x--x--x---x--x--x---x-x-x--x-x-x----------|
A|-10-10--10-10-10--8--8--8---8--8--8---7-7-7--7-7-7----------|
E|------------------------------------------------------------|

(1:12)
E|------------------------------------------------------------|
B|------------------------------------------------------------|
G|-7-7-7--7-7-7-----------------------------------------------|
D|-x-x-x--x-x-x-----------------------------------------------|
A|-5-5-5--5-5-5-----------------------------------------------|
E|------------------------------------------------------------|

(1:14)
E|------------------------------------------------------------|
B|------------------------------------------------------------|
G|-12-12--12-12-12--10-10-10--10-10-10--9-9-9--9-9-9----------|
D|-x--x---x--x--x---x--x--x---x--x--x---x-x-x--x-x-x----------|
A|-10-10--10-10-10--8--8--8---8--8--8---7-7-7--7-7-7----------|
E|------------------------------------------------------------|

(1:18)
E|------------------------------------------------------------|
B|------------------------------------------------------------|
G|-11-11-11--11-11-11-----------------------------------------|
D|-x--x--x---x--x--x------------------------------------------|
A|-9--9--9---9--9--9------------------------------------------|
E|------------------------------------------------------------|

Under vocals
(1:20)
E|------------------------------------------------------------|
B|------------------------------------------------------------|
G|-12-12--12-12-12--10-10-10--10-10-10--9-9-9--9-9-9----------|
D|-x--x---x--x--x---x--x--x---x--x--x---x-x-x--x-x-x----------|
A|-10-10--10-10-10--8--8--8---8--8--8---7-7-7--7-7-7----------|
E|------------------------------------------------------------|

(1:24)
E|------------------------------------------------------------|
B|------------------------------------------------------------|
G|-7-7-7--7-7-7-----------------------------------------------|
D|-x-x-x--x-x-x-----------------------------------------------|
A|-5-5-5--5-5-5-----------------------------------------------|
E|------------------------------------------------------------|

(1:25)
E|------------------------------------------------------------|
B|------------------------------------------------------------|
G|-12-12--12-12-12--10-10-10--10-10-10--9-9-9--9-9-9----------|
D|-x--x---x--x--x---x--x--x---x--x--x---x-x-x--x-x-x----------|
A|-10-10--10-10-10--8--8--8---8--8--8---7-7-7--7-7-7----------|
E|------------------------------------------------------------|

(1:29)
E|------------------------------------------------------------|
B|------------------------------------------------------------|
G|-11-11-11--11-11-11-----------------------------------------|
D|-x--x--x---x--x--x------------------------------------------|
A|-9--9--9---9--9--9------------------------------------------|
E|------------------------------------------------------------|

Bridge:
(Rhythm guitar)
(1:08)
E|------------------------------------------------------------|
B|------------------------------------------------------------|
G|-------------3-3-3--3-3-3--5-5-5--5-5-5--7-7-7--7-7-5-3-----|
D|-5-5--5-5-5--3-3-3--3-3-3--5-5-5--5-5-5--7-7-7--7-7-5-3-----|
A|-5-5--5-5-5--1-1-1--1-1-1--3-3-3--3-3-3--5-5-5--5-5-3-1-----|
E|-3-3--3-3-3-------------------------------------------------| x3

(1:25)
E|------------------------------------------------------------|
B|------------------------------------------------------------|
G|-------------3-3-3--3-3-3--5-5-5--5-5-5--7-7-7--7-7-5-3-2---|
D|-5-5--5-5-5--3-3-3--3-3-3--5-5-5--5-5-5--7-7-7--7-7-5-3-2---|
A|-5-5--5-5-5--1-1-1--1-1-1--3-3-3--3-3-3--5-5-5--5-5-3-1-0---|
E|-3-3--3-3-3-------------------------------------------------|

(1:30)
E|------------------------------------------------------------|
B|------------------------------------------------------------|
G|--------5-7-8-----------------------------------------------|
D|-5-5--5-5-7-8-8-8--8-8-8--8---------------------------------|
A|-5-5--5-3-5-6-8-8--8-8-8--8---------------------------------|
E|-3-3--3-------6-6--6-6-6--6---------------------------------| x4

Verse
(1:41)
E|------------------------------------------------------------|
B|------------------------------------------------------------|
G|--------5-7-8-----------------------------------------------|
D|-5-5--5-5-7-8-8-8--8-8-8--8---------------------------------|
A|-5-5--5-3-5-6-8-8--8-8-8--8---------------------------------|
E|-3-3--3-------6-6--6-6-6--6---------------------------------| x4

Chorus:
(1:51)
E|------------------------------------------------------------|
B|------------------------------------------------------------|
G|-5-5--5-5-5--8-8-8--7-7-7--------------5-7-8----------5-7-8-|
D|-5-5--5-5-5--8-8-8--7-7-7--5-5--555555-5-7-8-5-555555-5-7-8-|
A|-3-3--3-3-3--6-6-6--5-5-5--5-5--555555-3-5-6-5-555555-3-5-6-|
E|---------------------------3-3--333333-------3-333333-------|
Palm-muted: ----------------------^    ^---------^    ^

(1:57)
E|------------------------------------------------------------|
B|------------------------------------------------------------|
G|-5-5--5-5-5--8-8-8--7-7-7-----------------------------------|
D|-5-5--5-5-5--8-8-8--7-7-7--5-5--555555----------------------|
A|-3-3--3-3-3--6-6-6--5-5-5--5-5--555555----------------------|
E|---------------------------3-3--333333----------------------|
Palm-muted: ----------------------^    ^

(2:00)
E|------------------------------------------------------------|
B|------------------------------------------------------------|
G|-5-7-8------------------------------------------------------|
D|-5-7-8--5--555555-------------------------------------------|
A|-3-5-6--5--555555-------------------------------------------|
E|--------3--333333-------------------------------------------| x
Palm-muted: -^    ^

(2:03)
E|------------------------------------------------------------|
B|------------------------------------------------------------|
G|-5-7-8------------------------------------------------------|
D|-5-7-8------------------------------------------------------|
A|-3-5-6------------------------------------------------------|
E|------------------------------------------------------------|

(2:04)
E|------------------------------------------------------------|
B|------------------------------------------------------------|
G|-3--3-------------------------------------------------------|
D|-3--3--3--3--5----------------------------------------------|
A|-1--1--3--3--5----------------------------------------------|
E|-------1--1--3----------------------------------------------|

2:08
Done.

Questions, suggestions, comments? Drop me a line at: Cyco00Vision@hotmail.com
Tap to rate this tab
# A B C D E F G H I J K L M N O P Q R S T U V W X Y Z