Song name
# A B C D E F G H I J K L M N O P Q R S T U V W X Y Z

No Use For A Name - This Is A Rebel Song tab

-----------------------------------------------------------------------------
		    THIS IS A REBEL SONG - No Use For A Name
-----------------------------------------------------------------------------
Tabbed by: mani
Email: manuel_ramones4life@gmx.at

Tuning: E A D G B e

INTRO:
e|-----0---------0----------0-----0~-|
B|-------2----------2---------2---2~-|
G|---2--2-2----2---2-2----2--2-2--2~-|
D|--2-2-------2-2--------2-2------2~-|
A|-0---------0----------0---------0~-|
E|-----------------------------------|

VERSE:
i love you my hard english man....
e|--------------------------------|
B|--------------------------------|
G|--------------------------------|
D|-2-16 times-7-8 times-2-8 times-| 2 times
A|-0----------5---------0---------|
E|--------------------------------|
   X          X         X
can't you forgive what you think i've done...
e|-----------------------------------------------------------------|
B|-----------------------------------------------------------------|
G|--------------------------------------------------------------9~-|
D|---------------------7-8 times-----------7-16 times-9-8 times 9~-|
A|-7-8 times-7-8 times-5---------7-8 times-5----------7---------7~-|
E|-5---------4-------------------5---------------------------------|
   X         X         X         X         X          X

THEN THOSE TWO PARTS ARE REPEATED WITH A DIFFERENT RYTHM. JUST LISTEN TO THE SONG TO 
IT OUT. IT'S NOT DIFFICULT. THE ONLY DIFFERENCE IS THAT WHEN YOU REPEAT THE TWO PARTS THE 
CHORDs in E ARE PLAYED 0-2-2- AND NOT -7-9-9 LIKE YOU CAN SEE IT ABOVE.
THEN WHEN TONY STARTS TO SING JUST PLAY:
e|-------------------|
B|-------------------|
G|---------------7---|
D|-7------6------7---| 2 times
A|-7------7------5---|
E|-5------4----------|
THEN
e|---------------------|
B|---------------------|
G|---------------------|
D|-7------6------4---2-|
A|-7------7------4---2-|
E|-5------4------2---0-|

THEN JUST PLAY REPEAT EVERYTHING EXCEPT THE INTRO. SECOND VERSE AND SECOND CHORUS ARE 
THE SAME LIKE FIRST VERSE AND CHORUS. THE ONLY DIFFERENCE IS WITH THE MUTED PARTS. BUT YOU 
EASILY FIND OUT THE DIFFERENCE BY LISTENING TO THE SONG. REALLY IT'S VERY EASY.

END THE SONG ON
e|----|
B|----|
G|-7~-|
D|-7~-|
A|-5~-|
E|----|
Tap to rate this tab
# A B C D E F G H I J K L M N O P Q R S T U V W X Y Z