Song name
# A B C D E F G H I J K L M N O P Q R S T U V W X Y Z

No Vacancy - Fight tab

Fight - No Vacancy (School of Rock) Guitar Tab
 (Standard Tuning, Key of G Minor)

By: Stuthedew

This took me a little messing around, but you'll get the hang of it. The Guitar Pro tab
on here is near perfect, but for those of you that need help still, here ya go.

       (12 times on 5th fret)
e|-------------------------------------------------|
B|-------------------------------------------------|
G|-------------------------------------------------|
D|----5/777777777777-------------------------------|
A|----3/555555555555-------------------------------|
E|-------------------------------------------------| Opening x 4

e|---------------------------------|
B|---------------------------------|
G|----7-9-10-9-7-5-----------------|
D|-----------------7~~~------------|
A|---------------------------------| Intro Lead x 2
E|---------------------------------|

e|-------------------------------------|
B|-----------6-------------------------|
G|----7-5-7/---7-5-7---7---7-----------|
D|----------------------5----5---------|
A|-------------------------------------| Main Riff - 1st Guitar

E|-------------------------------------|
e|-------------------------------------|
B|-----------6-------------------------|
G|----7-5-7/---7-5-7---7---------------|
D|----------------------5~~5~~---------|
A|-------------------------------------| Main Riff - 1st Guitar
E|-------------------------------------|


e|-------------------------------------|
B|-------------------------------------|
G|-------------------------------------|
D|----------3--------------------------|
A|----5-3-5---5-3-5---5----------------| Main Riff - 2nd Guitar
E|------------------3---3--------------|

e|-------------------------------------|
B|-------------------------------------|
G|-------------------------------------|
D|----------3--------------------------|
A|----5-3-5---5-3-5--------------------| Main Riff - 2nd Guitar
E|------------------3~~3~~-------------|

Verse Chords - D - F - G - A# - bend 8th fret (C)

Chorus - C hammer to D - A# - A

Chorus Lead - (over intro riff)


e|-------------------------------------|
B|-------------------------------------|
G|-------------------------------------|
D|-------------------------------------|
A|---12--10/12/14/15/14/14/10/-8-7-----| Chorus Lead -
E|---10-/-8/10/12/13/12/10/8-/-6/5-----| 2nd Guitar

Bridge from Chorus - G - F (right before you turn up your amp and scream like Jack Black)

e|-------------------------------------------------|
B|-------------------------------------------------|
G|-------------------------------------------------|
D|-----3-------------------------------------------| Pentatonic
A|-------5-3---------------------------------------| Mess Around
E|-----------5-3-1-3-5-----------------------------| Lick

whammy or bend at 20th fret high e string, downward A locrain modal run
chromatic tap upwards 12---15 on B string with open notes between each slide tapping
finger. Spaz out in G minor with bluesy pull offs and whammy parlor tricks. Take off your
shirt afterwards and dive onto the closest waiter with a tray full of drinks. Kill any 
shot of ever getting booked at that venue again. Worth It.
Tap to rate this tab
# A B C D E F G H I J K L M N O P Q R S T U V W X Y Z