Song name
# A B C D E F G H I J K L M N O P Q R S T U V W X Y Z

No Warning - Scratch The Skin tab

Scratch The Skin (intro) by No Warning. Album: Suffer,Survive 
If you can add on to the song or have any comments please email me the at finnalthreat@live.com 

|--------------------------------------------------------------------------|
|--------------------------------------------------------------------------|
|-----------------------------------------------------------5-----5-----5--|
|--10----10----10----10--10----10----10----10----10--10--------------------|
|--------------------------------------------------------------------------|
|--8-----8-----8-----8---8-----10----10----10----10--10-----4-----4-----4--|

|--------------------------------------------------------------------------|
|--------------------------------------------------------------------------|
|--5---5-----5-----5-----5-----5---5---------------------------------------|
|--------------------------------------------------------------------------|
|--------------------------------------------------------------------------|
|--4---4-----3-----3-----3-----3---3---------------------------------------|

2X (repeate 2 times)
Tap to rate this tab
# A B C D E F G H I J K L M N O P Q R S T U V W X Y Z