Song name
# A B C D E F G H I J K L M N O P Q R S T U V W X Y Z

No Warning - Back To Life tab

Can't figure out the bridge of the song, sorry.

I play the song in Eb, but I'm almost positive it's in Db.

I'm not putting the strumming patterns in. They're easy to figure out.

* = palm mute

Intro: play this part 3 times
eb|----------------------------------------------------------------|
Bb|----------------------------------------------------------------|
Gb|---------4-----9-----------7-----5-----4------------------------|
Db|---2-----4-----9-----9-----7-----5-----4------5------4----------|
Ab|---2-----2-----7-----9-----5-----3-----2------5------4----------|
Eb|---0-----------------7------------------------3------2----------|

Then play this 4th time through
eb|----------------------------------------------------------------|
Bb|----------------------------------------------------------------|
Gb|---------4-----9------------------------------------------------|
Db|---2-----4-----9-----9-----7-----8-----5------7-----------------|
Ab|---2-----2-----7-----9-----7-----8-----5------7-----------------|
Eb|---0-----------------7-----5-----6-----3------5-----------------|

Then
eb|----------------------------------------------------------------|
Bb|----------------------------------------------------------------|
Gb|---------9------------------------------------------------------|
Db|---2-----9-----7-----8-----5-----7------------------------------|
Ab|---2-----7-----7-----8-----5-----7------------------------------|
Eb|---0-----------5-----6-----3-----5------------------------------|
      *

Verse part 1 played twice
eb|----------------------------------------------------------------|
Bb|----------------------------------------------------------------|
Gb|---------------3------------------------------------------------|
Db|---3-----2-----3-----2-----3-----2-----7-----8-----5-----7------|
Ab|---3-----2-----1-----2-----3-----2-----7-----8-----5-----7------|
Eb|---1-----0-----------0-----1-----0-----5-----6-----3-----5------|
            *           *           *

Verse part 2
eb|----------------------------------------------------------------|
Bb|----------------------------------------------------------------|
Gb|--------9----10----9---------7----9----7---------9----10---9----|
Db|---2----9----10----9----2----7----9----7----2----9----10---9----|
Ab|---2----7----8-----7----2----5----7----5----2----7----8----7----|
Eb|---0--------------------0-------------------0-------------------|
      *                    *                   *
1st ending of verse part 2
eb|----------------------------------------------------------------|
Bb|----------------------------------------------------------------|
Gb|----------------------------------------------------------------|
Db|---7-----8-----5-----7------------------------------------------|
Ab|---7-----8-----5-----7------------------------------------------|
Eb|---5-----6-----3-----5------------------------------------------|
Play verse part 2 again, only play this at the end
eb|----------------------------------------------------------------|
Bb|----------------------------------------------------------------|
Gb|---7-----5------------------------------------------------------|
Db|---7-----5------------------------------------------------------|
Ab|---5-----3------------------------------------------------------|
Eb|----------------------------------------------------------------|


Chorus
eb|----------------------------------------------------------------|
Bb|----------------------------------------------------------------|
Gb|---------7-----------5-----------------7-----4-----5-----7------|
Db|---2-----7-----7-----5-----5-----2-----7-----4-----5-----7------|
Ab|---2-----5-----7-----3-----5-----2-----5-----2-----3-----5------|
Eb|---0-----------5-----------3-----0------------------------------|

Goes back to intro
Play verses again
Chorus
Don't know the bridge
Chorus again
Intro again
Done

This is my first tab, so be gentle. Not many people look up this band anyhow, so I can't 
see it getting many views. Any comments, questions, add-ons, e-mail me at 
no_inner_kind@hotmail.com
Tap to rate this tab
 
# A B C D E F G H I J K L M N O P Q R S T U V W X Y Z