Song name
# A B C D E F G H I J K L M N O P Q R S T U V W X Y Z

No Way Out - Make A Move tab

Make A Move - No Way Out

tabbed by Shane Henry

Intro

D|--------------|
A|--------------|
F|--------------|
C|-000000000-000|
G|-000000000-000|
C|-000000000-000| x4


Interlude


D|----------------|
A|----------------|
F|----------------|
C|-000000000~-000~|
G|-000000000~-000~|
C|-000000000~-000~| x4

Verse/Chorus

D|---------------------------------|
A|-----------------------------8866|
F|-----------------333333335555----|
C|-0000000033333333333333335555----|
G|-0000000033333333111111113333----|
C|-0000000033333333----------------| x4

Bridge

D|-----------------|
A|-----------------|
F|-----------------|
C|-0004000104010104|
G|-0004000104010104|
C|-0004000104010104| x6
   *** *** * * * *


D|--------------------------|
A|--------------------------|
F|--------------------------|
C|-00-010-000-010-000-010-00|
G|-00-010-000-010-000-010-00|
C|-00-010-000-010-000-010-00|




D|-------------------------------|
A|-------------------------------|
F|-------------------------------|
C|-00-010-000-010-000-010-0004001|
G|-00-010-000-010-000-010-0004001|
C|-00-010-000-010-000-010-0004001| x2




D|-------------------------------|
A|-------------------------------|
F|-------------------------------|
C|-00-000-000-000-000-000-0004001|
G|-00-000-000-000-000-000-0004001|
C|-00-000-000-000-000-000-0004001| x2
   ** *** *** *** *** *** *

Verse/Chorus

D|---------------------------------|
A|-----------------------------8866|
F|-----------------333333335555----|
C|-0000000033333333333333335555----|
G|-0000000033333333111111113333----|
C|-0000000033333333----------------| x2


Solo

D|-----------------------------------------------|
A|-----------------------------------------------|
F|-7/10-9-797/12-10-91095-7-10-9-795-7-7-10-9-795|
C|-----------------------------------------------|
G|-----------------------------------------------|
C|-----------------------------------------------|

D|------------------------------------------------------------------|
A|----------------------------------------------------[8]--[8]b9-8/0|
F|-7p0-0-7p0-0-7p0-9p0-0-9p0-0-9p0-10p0-0-10p0-0-10p0----57---------|
C|------------------------------------------------------------------|
G|------------------------------------------------------------------|
C|------------------------------------------------------------------|


Fill

D|---------------------------------|
A|---------------------------------|
F|---------------------------------|
C|-0~------------------------------|
G|-0~------------------------------|
C|-0-------------------------------|

D|---------------------------------|
A|---------------------------------|
F|---------------------------------|
C|-0-0~---------------------------0|
G|-0-0~---------------------------0|
C|-0-0----------------------------0|


Pre-Breakdown

D|----------------------|
A|----------------------|
F|----------------------|
C|-0-0-00000401-00040101|
G|-0-0-00000401-00040101|
C|-0-0-00000401-00040101|
   * * ***** *  *** * *  

D|----------------------|
A|----------------------|
F|----------------------|
C|-0-0-00000401-0004~---|
G|-0-0-00000401-0004~---|
C|-0-0-00000401-0004~---| use whammy at end to make note sound like really deep slide.
   * * ***** *  ***   
   
D|----------------------|
A|----------------------|
F|----------------------|
C|-0-0-00000401-00040101|
G|-0-0-00000401-00040101|
C|-0-0-00000401-00040101| x4
   * * ***** *  *** * *  

1,2,3, GO!

D|----------------------|
A|----------------------|
F|----------------------|
C|-0-0-00000401-00040101|
G|-0-0-00000401-00040101|
C|-0-0-00000401-00040101| x4

At end of 4th time play 

D|--|
A|--|
F|--|
C|-0|
G|-0|
C|-0|

http://www.myspace.com/nowayouthardcore  
Tap to rate this tab
 
# A B C D E F G H I J K L M N O P Q R S T U V W X Y Z