Song name
# A B C D E F G H I J K L M N O P Q R S T U V W X Y Z

Noa - Path To Follow tab

                                Path To Follow                                  


Noa (Achinoam Nini) - guitar: Gil Dor
Ac. guitar TAB by guytarist@hotmail.com

Intro                                               


                            Dm7       Cmaj7              
     H        Q    E  E     E   E  E  E     E  E  E  E   
E||----------------------|--1---------0-----L-----0-----|
B||----------------------|------1-----------------------|
G||-------------------2--|---------4-----------4--------|
D||----------------------|--0------------------------7--|
A||----------------------|------------------3-----------|
E||----------------------|------------------------------|


  Fmaj7       Em7                 Fmaj7/E    Em7       Cmaj7/E  
  E     E  E  E   E  E  E  E      Q      E   E   E  E  Q        
--8p----0-----7---L-----------|--12---------10---L-----7-------|
------------------------8-----|--10----------8---L-----5-------|
-----------7---------7--------|--10----------9---L-----5-------|
------------------------------|--10----------9---L-----5-------|
--8---------------7-----------|--------------------------------|
---------------------------0--|----------0----------0----------|


     Bm7b5/E       Bm7b5/E             E7sus4                       
  E  E       E  E  E       E  E  E     E      E  E  E  E  E  E  E   
-----5-------L-----1----------------|---------------0--L--------0--|
-----3-------L-------------------3--|--L---------3-----------3-----|
-----4-------L----------------2-----|---------2-----------2--------|
-----3-------L----------------------|------------------------------|
---------------------------2--------|------------------------------|
--0-------------0-------------------|--0---------------------------|


                             Dm7          Em7           
  E  E  E  E  E  E  E  E     E   E  E  E  E   E  E  E   
--L--------0--L--------0--|--L------0------------------|
--------3-----------3-----|------------6--8---------8--|
-----2-----------2--------|------5---------------7-----|
--------------------------|--0----------------9--------|
--------------------------|---------------7------------|
--L-----------------------|----------------------------|


   F           G                   Am/9          Em           
   E   E   E   E   E   E   Q       E    E  E  E  E  E  E  E   
--------------------------------|-------------------------0--|
--10------10--12------12---L----|-------------0--L-----0-----|
--------------------------------|----------5--------0--------|
------10----------12------------|-------7--------------------|
---8----------10----------------|--0-------------------------|
--------------------------------|----------------0-----L-----|


  Fmaj7                          Dm/9          Dm9/C           
  E      E   E  E  Q    E  E     E    E  E  E  E     E  E  E   
--L-------------0--L----------|-------------0--L-----------0--|
------------10----------------|----------6--------------6-----|
------------------------------|-------7--------------7--------|
--------10--------------------|--0----------------------------|
--8---------------------8--7--|-------------------------------|
------------------------------|----------------8--------------|


              Dm9/C             Dm7          Em7        
  E  E  E  E  E     E  E  E     E   E  E  E  Q    Q     
--L--------0--L-----------0--|--L------0-----7----L----|
--------6--------------6-----|------------6--8----L----|
-----7--------------7--------|------5--------7----L----|
-----------------------------|--0----------------------|
-----------------------------|---------------7----L----|
--7-----------8--------------|--------------------0----|


  Am11                           Dm7          Em7           
  E     E  E  E  E  E  E   E     E   E  E  E  E   E  E  E   
--------------7--L------------|---------0------------------|
--------------8--L--8---------|------------6--8---------8--|
-----------7-----------7------|------5---------------7-----|
-------10-----------------10--|--0----------------9--------|
--0---------------------------|---------------7------------|
------------------------------|----------------------------|


   F           G                   Am/9          Em           
   E   E   E   E   E   E   Q       E    E  E  E  E  E  E  E   
--------------------------------|-------------------------0--|
--10------10--12------12---L----|-------------0--L-----0-----|
--------------------------------|----------5--------0--------|
------10----------12------------|-------7--------------------|
---8----------10----------------|--0-------------------------|
--------------------------------|----------------0-----L-----|


  Fmaj7                          Dm/9          Dm9/C           
  E      E   E  E  Q    E  E     E    E  E  E  E     E  E  E   
--L-------------0--L----------|-------------0--L-----------0--|
------------10----------------|----------6--------------6-----|
------------------------------|-------7--------------7--------|
--------10--------------------|--0----------------------------|
--8---------------------8--7--|-------------------------------|
------------------------------|----------------8--------------|


              Dm9/C             Dm7          Em7        
  E  E  E  E  E     E  E  E     E   E  E  E  Q    Q     
--L--------0--L-----------0--|--L------0-----7----L----|
--------6--------------6-----|------------6--8----L----|
-----7--------------7--------|------5--------7----L----|
-----------------------------|--0----------------------|
-----------------------------|---------------7----L----|
--7-----------8--------------|--------------------0----|


  E  E  E  E  E  E  E  E     E  E  E  E  E  E  E  E   
-----------3--L--------3--|--L--------3--L-----------|
--------3-----------3-----|--------3-----------------|
-----5-----------5--------|-----5-----------5--------|
--------------3-----------|--------------0-----------|
--0-----------------------|--7-----------------3-----|
--------------------------|-----------------------7--|


  Amaj9               Bmadd11/A                           
  Q     E  E  Q    E  E            Q    E  E  E  E  Q     
--0-----0-----0-------0---------|--L-------0--L-----0----|
--0-----0-----0-------3---------|--L-------3--L-----3----|
--6-----6-----6-------4---------|--L-------4--L-----4----|
--6-----6-----6-------4---------|--L-------4--L-----4----|
--0-----0--0--0----0------------|-------0--0--L--0--0----|
--------------------------------|------------------------|


  Amaj9               A9sus4                           
  Q     E  E  Q    E  E         Q    E  E  E  E  Q     
--0-----0-----0-------0------|--L-------0--L-----0----|
--0-----0-----0-------3------|--L-------3--L-----3----|
--6-----6-----6-------4------|--L-------4--L-----4----|
--6-----6-----6-------5------|--L-------5--L-----5----|
--0-----0--0--0----0---------|-------0--0--L--0--0----|
-----------------------------|------------------------|


  Amaj9               Bmadd11/A                           
  Q     E  E  Q    E  E            Q    E  E  E  E  Q     
--0-----0-----0-------0---------|--L-------0--L-----0----|
--0-----0-----0-------3---------|--L-------3--L-----3----|
--6-----6-----6-------4---------|--L-------4--L-----4----|
--6-----6-----6-------4---------|--L-------4--L-----4----|
--0-----0--0--0----0------------|-------0--0--L--0--0----|
--------------------------------|------------------------|


  Dmaj13                      G13                       
  Q      E  E  E  E  Q        E   E  E  E  E  E  E  E   
--0------L-----0-----------|---------------0-----------|
--0------L-----------------|------------0-----0--------|
--6---------6-----6--------|---------2-----------2-----|
--7------7-----------7\----|------3-----------------3--|
--5------L-----------------|---------------------------|
---------------------------|--3------------------------|


  F#m/11          B7sus4             Em11                          
                                            NH   NH   NH           
  E      E  E  E  E      E  E  E     E      E    E    E  H         
------------0---------------0-----|-----------------<>7--L--------|
---------------0--L------------0--|--L--------------<>7--L--------|
---------2---------------2--------|-----------------<>7--L--------|
----------------------------------|------------<>7----------------|
------------------2---------------|-------<>7---------------------|
--2-------------------------------|--0----------------------------|


  Dm7          Em7              F           G                 
  E   E  E  E  E   E  E  E      E   E   E   E   E   E   Q     
---------0------------------|--------------------------------|
------------6--8---------8--|--10------10--12------12---L----|
------5---------------7-----|--------------------------------|
--0----------------9--------|------10----------12------------|
---------------7------------|---8----------10----------------|
----------------------------|--------------------------------|


  Am/9          Em             Fmaj7                        
  E    E  E  E  E  E  E  E     E      E   E  E  Q    E  E   
-------------------------0--|----------------0--L----------|
-------------0--L-----0-----|------------10----------------|
----------5--------0--------|------------------------------|
-------7--------------------|--------10--------------------|
--0-------------------------|--8---------------------8--7--|
----------------0-----L-----|------------------------------|


  Dm/9          Dm9/C                         Dm9/C           
  E    E  E  E  E     E  E  E     E  E  E  E  E     E  E  E   
-------------0--L-----------0--|--L--------0--L-----------0--|
----------6--------------6-----|--------6--------------6-----|
-------7--------------7--------|-----7--------------7--------|
--0----------------------------|-----------------------------|
-------------------------------|-----------------------------|
----------------8--------------|--7-----------8--------------|


  Dm7          Em7         Am11                            Dm7       Em7        
  E   E  E  E  H           E     E  E  E  E  E  E  E       Q    Q    Q    Q     
--L------0-----7--------|-----------7-----7-----7-----||---5----5----7----7----|
------------6--8--------|-----------8-----8-----8-----||---6----6----8----8----|
------5--------7--------|--------------7-----7-----7--||*--5----5----7----7----|
--0---------------------|-------10--------------------||*--7----7----9----9----|
---------------7--------|--0--------------------------||---5----5----7----7----|
------------------------|-----------------------------||-----------------------|


   Fmaj7       G             Amadd9      Em           Fmaj9                   
   Q     Q     Q     Q       Q      Q    Q    Q       Q.     E  E  E  Q     3x
---8-----8-----7-----7----|--0------0----0----0----|--0------0--L-----0-----||
--10----10-----8-----8----|--0------0----0----0----|--1------1--L-----1-----||
---9-----9-----7-----7----|--5------5----0----0----|--0------0--L-----0----*||
--10----10-----9-----9----|--7------7----2----2----|--3------3--L-----3----*||
---8-----8----10----10----|--0------0----2----2----|--3------3--L-----3-----||
--------------------------|--------------0----0----|--1------1--L--1--1-----||


  Dm7       Em7           Fmaj7       G                                      
  Q    Q    Q    Q        Q     Q     Q     Q       E  E  E  E  E  E  E  E   
--5----5----7----7----|---8-----8-----7-----7----|-----------3--L--------3--|
--6----6----8----8----|--10----10-----8-----8----|--------3-----------3-----|
--5----5----7----7----|---9-----9-----7-----7----|-----5-----------5--------|
--7----7----9----9----|--10----10-----9-----9----|--------------3-----------|
--5----5----7----7----|---8-----8----10----10----|--0-----------------------|
----------------------|--------------------------|--------------------------|


                             Amaj9               Bmadd11/A  
  E  E  E  E  E  E  E  E     Q     E  E  Q    E  E          
--L--------3--L-----------|--0-----0-----0-------0---------|
--------3-----------------|--0-----0-----0-------3---------|
-----5-----------5--------|--6-----6-----6-------4---------|
--------------0-----------|--6-----6-----6-------4---------|
--7-----------------3-----|--0-----0--0--0----0------------|
-----------------------7--|--------------------------------|


                           Amaj9               A9sus4                           
  Q    E  E  E  E  Q       Q     E  E  Q    E  E         Q    E  E  E  E  Q     
--L-------0--L-----0----|--0-----0-----0-------0------|--L-------0--L-----0----|
--L-------3--L-----3----|--0-----0-----0-------3------|--L-------3--L-----3----|
--L-------4--L-----4----|--6-----6-----6-------4------|--L-------4--L-----4----|
--L-------4--L-----4----|--6-----6-----6-------5------|--L-------5--L-----5----|
-------0--0--L--0--0----|--0-----0--0--0----0---------|-------0--0--L--0--0----|
------------------------|-----------------------------|------------------------|


  Amaj9               Bmadd11/A                           
  Q     E  E  Q    E  E            Q    E  E  E  E  Q     
--0-----0-----0-------0---------|--L-------0--L-----0----|
--0-----0-----0-------3---------|--L-------3--L-----3----|
--6-----6-----6-------4---------|--L-------4--L-----4----|
--6-----6-----6-------4---------|--L-------4--L-----4----|
--0-----0--0--0----0------------|-------0--0--L--0--0----|
--------------------------------|------------------------|


  Dmaj13                      G13                       
  Q      E  E  E  E  Q        E   E  E  E  E  E  E  E   
--0------L-----0-----------|---------------0-----------|
--0------L-----------------|------------0-----0--------|
--6---------6-----6--------|---------2-----------2-----|
--7------7-----------7\----|------3-----------------3--|
--5------L-----------------|---------------------------|
---------------------------|--3------------------------|


  F#m/11          B7sus4             Em11                          
                                            NH   NH   NH           
  E      E  E  E  E      E  E  E     E      E    E    E  H         
------------0---------------0-----|-----------------<>7--L--------|
---------------0--L------------0--|--L--------------<>7--L--------|
---------2---------------2--------|-----------------<>7--L--------|
----------------------------------|------------<>7----------------|
------------------2---------------|-------<>7---------------------|
--2-------------------------------|--0----------------------------|


  Slower                                                         
                  Em7              F           G                 
  E      E  E  E  E   E  E  E      E   E   E   E   E   E   Q     
------------0------------------|--------------------------------|
---------------6--8---------8--|--10------10--12------12---L----|
---------5---------------7-----|--------------------------------|
--0-------------------9--------|------10----------12------------|
------------------7------------|---8----------10----------------|
-------------------------------|--------------------------------|


  Am/9          Em             Fmaj7                        
  E    E  E  E  E  E  E  E     E      E   E  E  Q    E  E   
-------------------------0--|--L-------------0--L----------|
-------------0--L-----0-----|------------10----------------|
----------5--------0--------|------------------------------|
-------7--------------------|--------10--------------------|
--0-------------------------|--8---------------------8--7--|
----------------0-----------|------------------------------|


  Dm/9          Dm9/C                                      
  E    E  E  E  E     E  E  E     E  E  E  E  E  E  E  E   
-------------0--L-----------0--|--L--------0--L--------0--|
----------6--------------6-----|--------6-----------6-----|
-------7--------------7--------|-----7-----------7--------|
--0----------------------------|--------------------------|
-------------------------------|--------------------------|
----------------8--------------|--7-----------8-----------|


  Dm7          Em7                                                              
  E   E  E  E  Q    Q       E  E  E  E  E  E  E  E     E  E  E  E  E  E  E  E   
--L------0-----7----L----|-----------3--L--------3--|--L--------3--L-----------|
------------6--8----L----|--------3-----------3-----|--------3-----------------|
------5--------7----L----|-----5-----------5--------|-----5-----------5--------|
--0----------------------|--------------3-----------|--------------0-----------|
---------------7----L----|--0-----------------------|--7-----------------3--2--|
--------------------0----|--------------------------|--------------------------|


                       A                  
  H        H           W                  
--------------------|-------------------||
--3--------0--------|--2----------------||
--2--------2--------|--2----------------||
--4--------0--------|--2----------------||
--0--------L--------|--0----------------||
--------------------|-------------------||




Duration Legend
---------------
W - whole
H - half
Q - quarter
E - 8th
S - 16th
T - 32nd
X - 64th
. - note dotted
|-n-|  - n-tuplets


Tablature Legend
----------------
L - tied note
x - dead note
g - grace note
(n) - ghost note
> - accentuded note
NH - natural harmonic
AH - artificial harmonic
TH - tapped harmonic
SH - semi harmonic
PH - pitch harmonic
h - hammer on
p - pull off
b - bend
br - bendRelease
pb - preBend
pbr - preBendRelease
brb - bendReleaseBend
\n/ - tremolo bar dip
\n - tremolo bar dive
-/n - tremolo bar Release up
/n\ - tremolo bar inverted dip
/n - tremolo bar return
-\n - tremolo bar Release down
S - shift slide
s - legato slide
/ -  slide into from below or out of upwards
\ -  slide into from above or out of downwards
~ - vibrato
W - wide vibrato
tr - trill
TP - tremolo picking
T - tapping
S - slap
P - pop
< - fade in
^ - brush up
v - brush down
Tap to rate this tab
 
# A B C D E F G H I J K L M N O P Q R S T U V W X Y Z