Guitaretab - guitar tabs
Song name
# A B C D E F G H I J K L M N O P Q R S T U V W X Y Z

Noah And The Whale - Rocks And Daggers tab

Capo on 4th fret.



  (Intro) 

e|------------------------------------------------------------------------------|
B|--3---------3--------1----------------------------0------------------0--------|
G|---------------0---------------0--------2------------2-----0------------0-----|
D|--------2---------2---------2-----2------------2--------2---------2-----------|
A|--3--3-------------------3-----------3------3------------------3-----------3--|
E|------------------------------------------------------------------------------|
  

e|------------------------------------------------------------------------------|
B|--3---------3--------1----------------------------0------------------0--------|
G|---------------0---------------0--------2------------2-----0------------0-----|
D|--------2---------2---------2-----2------------2--------2---------2-----------|
A|-----3-------------------3-----------3------3------------------3-----------3--|
E|------------------------------------------------------------------------------|


e|-----------------------------------------------------|
B|-----------0------------0------------0------------0--|
G|--2-----2-----2------2-----2-----2------2-----2------|  (Play 3 times)
D|-----------------------------------------------------|
A|-----3-----------3------------3------------3---------|
E|-----------------------------------------------------|    



---------------------------------------------------------------------------------


                                    
"Oh there are rocks.."

e|------------------------------------------------------------------------------|
B|--3---------3--------1----------------------------0------------------0--------|
G|---------------0---------------0--------2------------2-----0------------0-----|
D|--------2---------2---------2-----2------------2--------2---------2-----------|
A|-----3-------------------3-----------3------3------------------3-----------3--|
E|------------------------------------------------------------------------------|
  

e|------------------------------------------------------------------------------|
B|--3---------3--------1----------------------------0------------------0--------|
G|---------------0---------------0--------2------------2-----0------------0-----|
D|--------2---------2---------2-----2------------2--------2---------2-----------|
A|-----3-------------------3-----------3------3------------------3-----------3--|
E|------------------------------------------------------------------------------|


e|-----------------------------------------------------|
B|-----------0------------0------------0------------0--|
G|--2-----2-----2------2-----2-----2------2-----2------|  
D|-----------------------------------------------------|
A|-----3-----------3------------3------------3---------|
E|-----------------------------------------------------|


e|------------------------------------------------------------------------------|
B|--3---------3--------1----------------------------0------------------0--------|
G|---------------0---------------0--------2------------2-----0------------0-----|
D|--------2---------2---------2-----2------------2--------2---------2-----------|
A|-----3-------------------3-----------3------3------------------3-----------3--|
E|------------------------------------------------------------------------------|


e|-----------------------------------------------------|
B|-----------0------------0------------0------------0--|
G|--2-----2-----2------2-----2-----2------2-----2------|  
D|-----------------------------------------------------|
A|-----3-----------3------------3------------3---------|
E|-----------------------------------------------------|


e|------------------------------------------------------------------------------|
B|--3---------3--------1----------------------------0------------------0--------|
G|---------------0---------------0--------2------------2-----0------------0-----|
D|--------2---------2---------2-----2------------2--------2---------2-----------|
A|-----3-------------------3-----------3------3------------------3-----------3--|
E|------------------------------------------------------------------------------|
  

e|------------------------------------------------------------------------------|
B|--3---------3--------1----------------------------0------------------0--------|
G|---------------0---------------0--------2------------2-----0------------0-----|
D|--------2---------2---------2-----2------------2--------2---------2-----------|
A|-----3-------------------3-----------3------3------------------3-----------3--|
E|------------------------------------------------------------------------------|

[ Tab from: http://www.guitaretab.com/n/noah-and-the-whale/115997.html ]
e|------------------------------------------------------------------------------|
B|--3---------3--------1----------------------------0------------------0--------|
G|---------------0---------------0--------2------------2-----0------------0-----|
D|--------2---------2---------2-----2------------2--------2---------2-----------|
A|-----3-------------------3-----------3------3------------------3-----------3--|
E|------------------------------------------------------------------------------|
  

e|------------------------------------------------------------------------------|
B|--3---------3--------1----------------------------0------------------0--------|
G|---------------0---------------0--------2------------2-----0------------0-----|
D|--------2---------2---------2-----2------------2--------2---------2-----------|
A|-----3-------------------3-----------3------3------------------3-----------3--|
E|------------------------------------------------------------------------------|


e|-----------------------------------------------------|
B|-----------0------------0------------0------------0--|
G|--2-----2-----2------2-----2-----2------2-----2------|  
D|-----------------------------------------------------|
A|-----3-----------3------------3------------3---------|
E|-----------------------------------------------------|


e|------------------------------------------------------------------------------|
B|--3---------3--------1----------------------------0------------------0--------|
G|---------------0---------------0--------2------------2-----0------------0-----|
D|--------2---------2---------2-----2------------2--------2---------2-----------|
A|-----3-------------------3-----------3------3------------------3-----------3--|
E|------------------------------------------------------------------------------|


e|-----------------------------------------------------|
B|-----------0------------0------------0------------0--|
G|--2-----2-----2------2-----2-----2------2-----2------|  
D|-----------------------------------------------------|
A|-----3-----------3------------3------------3---------|
E|-----------------------------------------------------|


e|------------------------------------------------------------------------------|
B|--3---------3--------1----------------------------0------------------0--------|
G|---------------0---------------0--------2------------2-----0------------0-----|
D|--------2---------2---------2-----2------------2--------2---------2-----------|
A|-----3-------------------3-----------3------3------------------3-----------3--|
E|------------------------------------------------------------------------------|
  

e|------------------------------------------------------------------------------|
B|--3---------3--------1----------------------------0------------------0--------|
G|---------------0---------------0--------2------------2-----0------------0-----|
D|--------2---------2---------2-----2------------2--------2---------2-----------|
A|-----3-------------------3-----------3------3------------------3-----------3--|
E|------------------------------------------------------------------------------|



--------------------------------------------------------------------------------



"Cause when the sun always shines down on your shoes.."
(1:32 - 1:50)

     G      C      G      C      G      C      G      C
e|--(3)----(0)----(3)----(0)----(3)----(0)----(3)----(0)----|
B|--(3)----(1)----(3)----(1)----(3)----(1)----(3)----(1)----|
G|--(0)----(0)----(0)----(0)----(0)----(0)----(0)----(0)----|*(Let Ring)
D|--(0)----(2)----(0)----(2)----(0)----(2)----(0)----(2)----|
A|--(2)----(3)----(2)----(3)----(2)----(3)----(2)----(3)----|
E|--(3)-----------(3)-----------(3)-----------(3)-----------|



(1:51 - 2:53)

    G   C
e|--3---0---|
B|--3---1---|
G|--0---0---| (Play these two chords repeatedly,
D|--0---2---|  listen to the song to figure out strumming.)
A|--2---3---|  
E|--3-------|



(2:54 - 3:10)

    G   Em  D
e|--3---0---2---|
B|--3---0---3---|
G|--0---0---2---| (Play these three chords repeatedly, 
D|--0---2---0---|  listen to the song to figure out strumming, once again.)
A|--2---2---0---|
E|--3---0-------|



"Oh, but there's no need to play with my heart.."
(3:27 - 4:00)

e|------------------------------|
B|------------------------------|
G|------------------------------|  (Play 4 times)
D|-----0-----0---------------0--|
A|------------------2----0------|
E|--3-----3-----0---------------|



(4:01 - End of the song)

    G   Em  D
e|--3---0---2---|
B|--3---0---3---|
G|--0---0---2---| (Play these three chords repeatedly, 
D|--0---2---0---|  listen to the song to figure out strumming.)
A|--2---2---0---|
E|--3---0-------|



-Thanks for checking my tab, hope you enjoy! -Mike
Related for Rocks And Daggers tab
Advertisement will be closed in 10 seconds