Song name
# A B C D E F G H I J K L M N O P Q R S T U V W X Y Z

Noah And The Whale - Beating chords

Highlighted       Show chord diagrams
Noah and the Whale - Beating
Tabbed by Steve Sco
Take into account when i transfer this from Word to Ultimate-guitar the Chords above 
lyrics go out of place.

Capo 1st Fret

| / slide up
| \ slide down
| h hammer-on
| p pull-off
| ~ vibrato
| + harmonic
| x Mute note


Tab relative to Capo
Intro riff:
E|----------------------------------------------------------------------------------|
B|--3-/-5--3-0-1(h)-0---------------------------------------------------------------|
G|----------------------2-----------------------------------------------------------|
D|----------------------------------------------------------------------------------|
A|----------------------------------------------------------------------------------|
E|----------------------------------------------------------------------------------|

Riff 2:
E|----------------------------------------------------------------------------------|
B|----------------------------------------------------------------------------------|
G|----------------------------------------------------------------------------------|    
       x2
D|---2-2--0------------------0--------------2-2--0------------------0--0------------|
A|------------2--(p) 0-----0----2--0-----------------2-(p)-0------0-------2---------|
E|----------------------3--------------3------------------------3-------------------|

Untill the song speeds up try to only use the bass notes of the chord.

Intro: C, G, D, intro riff (shown above) x3 but on the third time do not play intro riff.

          C            G
Don't build the castle
   D            Em
At your centre
       C                    G
Oh the heart can't love
        D                 Em
What it can't remember

        C            G
Be willing to be hurt
             D            Em
Oh be willing to be bruised
             C                G
'Cos a heart that dosen't love
        D            Em
Is a heart that isn't used


C
Oh turn your love to life
G
Let your love shine through
C
In everything you do
G
Let your love shine through

Am, C, G x2
C, G, D, Em x2 Alongside 'riff 2'

    C            G          D         Em
Oh I thought I felt my heart beating
          C            G          D         Em       
           (Speed up)
Well I thought I'd never know that feeling
     C            G          D         Em
Oh I thought I felt my heart beating
              C            G          D         Em
Well I thought I'd never know that feeling

C, G, D, Em x2 Alongside 'riff 2'

               C            G
Well my heart was like a cave
          D         Em
Now light shines in it
           C            G                  D         Em
Oh to fall in love is brave       ??lyric missing??
            C                      G
Oh my heart was like a stone
     D         Em
That barely moved
             C                      G
Oh my heart was like a magnet
          D         Em
Oh for hearts like yours


       C
Oh turn your love to life
         G
Let your love shine through
   C
In everything you do
   G
Let your love shine through

Am, C, G x2

C, G, D, Em x3 then C, G, hold 
finish on G
Tap to rate this tab
# A B C D E F G H I J K L M N O P Q R S T U V W X Y Z