Song name
# A B C D E F G H I J K L M N O P Q R S T U V W X Y Z

Noah And The Whale - Hold My Hand As Im Lowered chords

Highlighted       Show chord diagrams
be
Chords:
e|-0------4----------------------------------------|
B|-0------4------2------4--------------------------|
G|-1------4------2------4--------------------------|
D|-2------6------2------4--------------------------|
A|-2------6------4------6--------------------------|
E|-0------4------5------7--------------------------|
   E     G#m     A      B

Intro:
e|-----0-----------------------------------------|
B|-----0-----------2----2------------------------|
G|---------4----2--2----2------------------------|
D|-2---------6--2----2--------2------------------|
A|-2------------4----4----2h4---4----------------|
E|-0-----4------5----5---------------------------|


E       G#m         A
Hold my hand as I'm lowered
E                   G#m      A
And please don't see me as a coward
B                   A
For death, I do not forsake thee
            B                    A
Though your dark stare is always upon me


        E                   A            E  A
Well, I fell in love with a world in you
        E                   A            E  A
Well, I fell in love with a world in you


  E             G#m           A
O Death, do not feel like the victor
          E               G#m          A
'Cause my poor life makes you none the richer
         B                           A
Oh, your cold hands are clutching at cloth
        B                           A
I leave nothing on Earth that won't rot


        E                     A            E  A
Well, I fell in love with the world in you
        E                     A            E  A
Well, I fell in love with the world in you



Well, I fell in love with the world in you

And now I feel cold



Well, I fell in love with the world in you

And now I feel holier 
Tap to rate this tab
 
# A B C D E F G H I J K L M N O P Q R S T U V W X Y Z