Song name
# A B C D E F G H I J K L M N O P Q R S T U V W X Y Z

Noah And The Whale - Death By Numbers tab

`-------------------------------------------------------------------------------
			     Death by Numbers - Noah and the Whale
-------------------------------------------------------------------------------
Tabbed by: Jono B




Couldnt find a tab for this song anywhere so here it goes.
Really fun song to play hope y'all appreciate and enjoy it!



Tuning: standard (capo 2nd or somewhere abouts if ya really want to)


Intro  play this twice

e|-----0----------------------|
B|-------------1--------3/5---|
G|----------------2-----------|
D|-------------------2--------|
A|--3--------0-----------0--0-|
E|----------------------------|

e|-----0----------------------|
B|-------------1--------4/3---|
G|----------------2-----------|
D|-------------------2--------|
A|--3--------0-----------0--0-|
E|----------------------------|

Play/Pick these chords twice    then Play/Pick these two four times

e|---0---0---0---0--|               e|--O---0-------|
B|---1---1---1---1--|               B|--1---1-------|
G|---0---2---0---0--|               G|--0---2-------|
D|---2---3---2---0--|               D|--2---2-------|
A|---3---0---3---2--|               A|--2---0-------|
E|---0---0---0---3--|               E|--------------|

And then . . . .    This twice

e|---0-------------------0-----0------------------|
B|---1-hold------------1-----1-----1--------------|
G|---2---------------0-----0-----0---0------------|
D|---3-------------2-------------------2----------|
A|---0-----------3--------------------------------|
E|---0--------------------------------------------|

PLAY ABOVE TOTAL OF THREE TIMES AND THEN PLAY INTRO RIFF EIGHT TIMES

OUTRO Gently Play/Pick these chords about eight times

e|---0---0---0---0--------------------------------------|
B|---1---1---1---1--------------------------------------|
G|---0---2---0---0--------------------------------------|
D|---2---3---0---2--------------------------------------|
A|---3---0---2---3--------------------------------------|
E|---0---0---3------------------------------------------|




************************************

| /   slide up
| \   slide down
| h   hammer-on
| p   pull-off
| ~   vibrato
| +   harmonic
| x   Mute note
| b   Bend
| pb  Pre-bend
| br  Bend release
| pbr Pre-bend release
| brb Bend release bend

************************************
Tap to rate this tab
 
# A B C D E F G H I J K L M N O P Q R S T U V W X Y Z