Noah And The Whale - Slow Glass tab

Credit to the person who wacked the chords up,
I believe they are correct and have kept them
the same, I have just added in the tab for the
intro/chorus, which I hope is mostly correct.
I'm not great at tabbing, so apoligies if I'm
way off. I can put corrections in at another
time if either you, or I, notice any, but it
sounds pretty OK to me. I hope it's not too
difficult to read!

I think they play it a whole step down, or a whole
step down with capo on 7 (capo 5 in standard).
I have linked videos at the bottom of them playing
it both ways.

Picking pattern throughout song:

A:

E-----x-------x-------|
A-2---x--2----x--2----|
D---2-x-----2-x-------|
G-----x-------x-------|
B-0---x--0----x-(0)---|
e-----x-------x-------| x4 for each line then:

G:

E-----x-------x-------|
A-0---x--0----x--0----|
D---0-x-----0-x-------|
G-----x-------x-------|
B-----x-------x-------|
e-3---x--3----x-(3)---| x2 and for the last bit:

E-----x-------x--3----x-------x-----|
A-0---x--0----x-------x--0----x--0--|
D---0-x-----0-x----0--x-----0-x-----|
G-----x-------x-------x-------x-----|
B-----x-------x-------x-------x-----|
e-3---x--3----x--3----x--3----x-(3)-|

Intro/chorus:

E----x----x----5-x-----x--------|
A-2--x-3--x-3----x-0-3-x--3-----|
D--2-x--2-x------x-----x--------|
G----x----x------x-----x--------|
B-0--x-0--x------x---5-x--------|
e----x----x----3-x-----x--------|

E----x----x------x-----x--------|
A-2--x-3--x-3--5-x-5-3-x-3------|
D--2-x--2-x------x-----x--------|
G----x----x------x-----x--------|
B-0--x-0--x------x-----x--------|
e----x----x----3-x---2-x--------|


      A
We'll sing love songs about heartbreak, and grief,
          G
Sing it's not just music, but the pain's not brief.
   A
We sing, how your love, is like a knife to the back.
           G
Well I was stabbed and bleeding, but still begging for attack.


CHORUS:
      (Start intro bit on slow and repeat x2)
But I was looking through slow, slow glass,

Looking though slow, slow glass.

       A
Well I heard, you've been singing, I was, what I am.
       G
Well I never tried to change you, honey I'm your biggest fan.
       A
And I loved you back then, but I don't recognise you now.
        G
Yeah in fact we're almost strangers, and I don't know how.


CHORUS:
  (Start playing intro bit on slow and repeat x2)
but I've been looking through slow, slow glass

Yeah I've been looking though slow, slow glass




Them playing it acoustic, no capo: http://www.youtube.com/watch?v=h9ZfYoATtzg&

Them playing it acoustic, capo: http://www.youtube.com/watch?v=scF70un4H7U&
Tap to rate this tab
 
# A B C D E F G H I J K L M N O P Q R S T U V W X Y Z