Noah And The Whale - The First Days Of Spring tab

-------------------------------------------------------------------------------
			     THE FIRST DAYS OF SPRING - Noah And The Whale
-------------------------------------------------------------------------------
Tabbed by: 651Tom
Email: Message me on here if you need to.

Tuning: E Standard

Intro.
e|---------------------------------------------------------------------------|
B|---------------------------------------------------------------------------|
G|-----0--------0----------2---------4---------------------------------------|
D|---0--------0----------0---------0---0------4--------4---------2-------2---|
A|------------------------------------------5---5----5---5\3---3---3---3---3-|
E|-3--------3---------3---------3---------5--------5---------3-------3-------|

|---------------------------0------B---|
|----------------------------3-----R---|
|-------0--------0------0-----0----U---|
|-----2--------0------0--------2---S---|
|---2--------0------------------3--H---|
|-0--------2--------3------------------|

|---------------------------------------------------------|
|---------------------------------------------------------|
|-----0---2h4---2p0------0---2h4---2p0----0---0-----0---0-|
|---0---0-----0--------0---0-----0----------5---------5---|  x2
|------------------------------------------------3--------|
|-3------------------3------------------0-----------------|


Verse
|--------------------------------------|    |-------------------|
|--------------------------------------|    |-------------------|
|-----0---2h4---2p0------0---2h4---2p0-|    |---0---0-----0---0-|
|---0---0-----0--------0---0-----0-----| x2 |-----5---------5---|  x2 (All)
|--------------------------------------|    |----------3--------|
|-3------------------3-----------------|    |-0-----------------|

Main Verse Riff - x1 (Once Through, Not x2)

Bridge
|--------------------------------------0---0-------0------------------------|
|----------------------------------------------1----------------------------|
|---0---0----0---0----5---5---5---5---------------------0---0---0---0-------|
|-----5--------5--------5-------5----2---2---2---2--------------------------|
|-------------------3-------3-----------------------------------------------|
|-0--------0------------------------------------------3---3---3---3---------|

Main Verse Riff - x1 (Once Through, Not x2)

Bridge - x1

Main Verse Riff - x1 (Once Through, Not x2)

Bridge 2
|---------------------------------|
|---1---1---1---1---5---5---5---5-|
|---------------------------------|
|---------------------------------|
|-----------------3---3---3---3---|
|-0---0---0---0-------------------|

Main Verse Riff - x1 (Once Through, Not x2)

Bridge 2 - x1

Verse - x1

Last Line of Intro. - x1 (End on a ringing G note)

Verse 2
|---------------|      |-------|   |---------------|   |--3------|   |-------|
|---------------|      |-------|   |---------------|   |---------|   |-------|
|---------------|      |-------|   |---------------|   |---------|   |-------|
|---------------|  x2  |-------|   |---------------|   |---------|   |-------|  x2
|-------3-------|      |-------|   |-------3-------|   |---------|   |-------|
|-0-----------3-|      |-3-----|   |-0-----------3-|   |-3-------|   |-3-----|

|-----------|
|-----------|
|-----------|
|-----------|
|-------3---|
|-0---------|


Main Verse Riff - x1 (Once Through, Not x2)

Bridge - x1

Main Verse Riff - x1 (Once Through, Not x2)

Bridge - x1

Main Verse Riff - x1 (Once Through, Not x2)

Bridge 2 - x1

Main Verse Riff - x1 (Once Through, Not x2)

Bridge 2 - x1

Main Verse Riff - x1 (Once Through, Not x2)


Outro.
|--------------------------|
|--------0-----------------|
|----0-2---------------0-0-|
|----------2~-2--2---2-----|   x4
|--------------------------|
|-3~-----------------------|

|--------------------------------------|
|--------0----3-0---0-------3-0--------|
|----0-2----------2----0--------2-0----|
|-----------2------------------------0-|  x4
|--------------------------------------|
|-3~-----------------------------------|

Strumming - Listen to Song For Rhythm
|-3--3--3--0-|
|-3--3--0--3-|
|-0--0--0--0-|
|-0--0--2--2-|  x4 (End on a G Major played once)
|-2--2--2--3-|
|-3--3--0----|

|---------------|
|---------------|
|---------------|
|---------------|  x2
|-------3-------|
|-0-----------3-|
Tap to rate this tab
 
# A B C D E F G H I J K L M N O P Q R S T U V W X Y Z