Song name
# A B C D E F G H I J K L M N O P Q R S T U V W X Y Z

Noah And The Whale - Stranger tab

-------------------------------------------------------------------------------
			 Noah and the Whale - Stranger
-------------------------------------------------------------------------------
Tabbed by: Matt Palmer

Tuning: Standard. Capo on 6.

This is on electric, clean with what sounds like compression and some reverb. I reckon 
bridge pu and mid tone.

The tab and chords I write are relative to the capo on 6 (i.e. add an augm. 4th to work 
out what to play on keyboard, etc.) The chords are just a guess from the notes and what 
feels to be right in the song.


Verse (thanks to unregistered
http://tabs.ultimate-guitar.com/n/noah_and_the_whale/stranger_intro_tab.htm)

 1   2   3   4   1   2   3   4

---------------------------------|
---------------------------------|
-----0-----0---0-----0-----0-----|
---2---2-4---4-----0---0-4------0|
-----------------------------2---|
-0---------------3---------------|

 Em              G


Chorus

 1   2   3   4   1   2   3   4   1   2   3   4   1   2   3   4

-----------------------------------------------------------------|
-------1-0-1-----------1-0-1-------------------------------------|
-----0-------0-------0-------0-------0-----0---0-----0-----0---0-|
---2-----------2---2-----------2---0---0-4---4-----0---0-4---4---|
-3---------------3-----------------------------------------------|
---------------------------------3---------------3---------------|

 C               C                G              G


last bit for chorus


 1   2   3   4

-----------------|
-----------------|
-----0-----0-----|
---0---0-4-----0-|
-------------2---|
-3---------------|

 G


Bridge

 1   2   3   4   1   2   3   4   1   2   3   4   1   2   3   4

-----------------------------------------------------------------|
-------------------------------(0)-------------------------------|
-----------------------------------------------------------------|
---2---2---2--2/4--4---0---2---2---2---2---2--2/4--4---4---4---0-|
-----------------0---0---------------------------0---0---0---0---|
-3---3---0---0-----------3---3---0---0---0---0-------------------|

 Em              F#m     Gaugsus2 Em             F#m           D

 1   2   3   4   1   2   3   4   1   2   3   4   1   2   3   4

-----------------------------------------------------------------|
-----------------------------------------------------------------|
-------------------------------------0-----0---0-----0-----0-----|
---2---2---2--2/4--4---0---2---2---0---0-4---4-----0---0-4-----0-|
-----------------0---0---------------------------------------2---|
-3---3---0---0-----------3---3---3---------------3---------------|

 Em              F#m     Gaugsus2 G              G



end of 2nd Bridge and outro of electric

 1   2   3   4   1   2   3   4   1   2   3   4   1   2   3   4

-----------------------------------------------------------------|
-----------------------------------------------------------------|
-----------------------------------------------------------------|
---2---2---2--2/4--4---0---2---2---5---5---5---5-----------------|
-----------------0---0----------------------------and so on------|
-3---3---0---0-----------3---3---3---3---3---3-------------------|

 Em              F#m     Gaugsus2 G


Chords at the end of the song are basic chords on acoustic guitar, it sounds like 
without a capo. There are tabs for the chords already.
Tap to rate this tab
 
# A B C D E F G H I J K L M N O P Q R S T U V W X Y Z