Song name
# A B C D E F G H I J K L M N O P Q R S T U V W X Y Z

Noah And The Whale - Blue Skies tab

Blue Skies- Noah and the Whale

I just discovered this band and I already love them. This is one of their best songs.

Noah and the Whale play this song tuned differently but this is how you play it in 
standard tuning.

Chords:
        C      Csus2      F     Dm       Am
e-------0--------0--------1------1--------0----|
b-------1--------1--------1------3--------1----|
g-------0--------0--------2------2--------2----|
d-------2--------0--------3---------------2----|
a-------3--------3--------3---------------0----|
e-------------------------1--------------------|


Intro:
    C   Csus2   C  Csus2    F
e -------------------------------------------------------------------|
b -------------------------------------------------------------------|
g -------------------------------------------------------------------|
d -----2220--0-0h2-2220--0----0h2----------------0h2-----------------|     x2
a---33-----3-----------3---------3-------3-----------3-----3---------|
e--------------------------1--------3h5------1---------3h5-----------|


 C             Csus2     C      Csus2      F
This is a song for anyone with a broken heart

Play this part after the lyrics
e ---------------------------------------|
b ---------------------------------------|
g ---------------------------------------|
d ------0h2----------------0h2-----------|
a----------3-------3----------3------3---|
e---1--------3h5------1---------3h5------|

 C             Csus2     C      Csus2      F
This is a song for anyone who can't get out of bed

e ---------------------------------------|
b ---------------------------------------|
g ---------------------------------------|
d ------0h2----------------0h2-----------|
a----------3-------3----------3------3---|
e---1--------3h5------1---------3h5------|
            Dm           C
I'll do anything to be happy

e ---------------------------------------|
b ---------------------------------------|
g ---------------------------------------|
d ------0h2----------------0h2-----------|
a----------3-------3---3-------3------3--|
e------------3h5------------------3h5----|

         Dm                F                         C
Oh cause blue skies are coming but I know that it's hard

e ---------------------------------------|
b ---------------------------------------|
g ---------------------------------------|
d ------0h2----------------0h2-----------|
a----------3-------3---3-------3------3--|
e------------3h5------------------3h5----|


C         Csus2     C           Csus2      F          (can play this part like the intro)

C         Csus2     C           Csus2      F

 C             Csus2             C      Csus2      F
This is the last song that I write while still in love with you

e ---------------------------------------|
b ---------------------------------------|
g ---------------------------------------|
d ------0h2----------------0h2-----------|
a----------3-------3----------3------3---|
e---1--------3h5------1---------3h5------|

  C             Csus2             C              Csus2      F
This is the last song that I write while you're even on my mind

e ---------------------------------------|
b ---------------------------------------|
g ---------------------------------------|
d ------0h2----------------0h2-----------|
a----------3-------3----------3------3---|
e---1--------3h5------1---------3h5------|

            Dm                               C
Cause it's time to leave those feelings behind

e ---------------------------------------|
b ---------------------------------------|
g ---------------------------------------|
d ------0h2----------------0h2-----------|
a----------3-------3---3-------3------3--|
e------------3h5------------------3h5----|

         Dm                F                         C
Oh cause blue skies are coming but I know that it's hard

e ---------------------------------------|
b ---------------------------------------|
g ---------------------------------------|
d ------0h2----------------0h2-----------|
a----------3-------3---3-------3------3--|
e------------3h5------------------3h5----|

 C                                      Am                   F
I don't think that it's the end, but I know we can't keep going

 C                                      Am                   F
I don't think that it's the end, but I know we can't keep going

    Dm               F
But blue skies are coming  (blue skies are coming)

    Dm               F
But blue skies are coming  (blue skies are coming)

        Dm               F                            C
Oh well blue skies are coming, but I know that it's hard

e ---------------------------------------|
b ---------------------------------------|
g ---------------------------------------|
d ------0h2----------------0h2-----------|
a----------3-------3---3-------3------3--|
e------------3h5------------------3h5----|


Outro:

    C   Csus2   C  Csus2    F
e -------------------------------------------------------------------|
b -------------------------------------------------------------------|
g -------------------------------------------------------------------|
d -----2220--0-0h2-2220--0----0h2----------------0h2-----------------|     x4
a---33-----3-----------3---------3-------3-----------3-----3---------|
e--------------------------1--------3h5------1---------3h5-----------|


End on C

Lyrics from http://www.lyrics-celebrities.anekatips.com/blue-skies-lyrics-noah-and-the-whale
Tap to rate this tab
 
# A B C D E F G H I J K L M N O P Q R S T U V W X Y Z