Song name
# A B C D E F G H I J K L M N O P Q R S T U V W X Y Z

Noah And The Whale - Stranger tab

   Am              C               Am              C

E|-----------------------------------------------------------------|
B|-----1---0-1-0-1-----1---0-1---------1---0-1-0-1-----1---0-1-----|
G|---2---2-----------0---0-------0---2---2-----------0---0-------0-|
D|-----------------------------2-------------------------------2---|
A|-0---------------3---------------0---------------3---------------|
e|-----------------------------------------------------------------|


E|-----1---0-1-0-1-----1---0-1-0-1---------------------------------|
B|---1---1-----------1---1-------------1---0-1-0-1-----1---0-1-0-1-|
G|-2---------------2-----------------0---0-----------0---0---------|
D|---------------------------------2---------------2---------------|
A|-----------------------------------------------------------------|
e|-----------------------------------------------------------------|

E|---------------------------------|
B|---------------------------------|
G|---2---2---2---2---4---4---4---4-|
D|---------------------------------|
A|-0---0---0---0---2---2---2---2---|
e|---------------------------------|
Tap to rate this tab
# A B C D E F G H I J K L M N O P Q R S T U V W X Y Z