Song name
# A B C D E F G H I J K L M N O P Q R S T U V W X Y Z

Noah And The Whale - Waiting For My Chance chords

Highlighted       Show chord diagrams
-------------------------------------------------------------------------------
		   Waiting For My Chance- Noah and the Whale
----------------------------------------------------------------------------
Tabbed By: Micnu
Enjoy this one I love it!


Intro: (I play this twice, although it's played four times in the song)

e|----3-----7---7---5---3--------------------------------------------------|
B|----0--------------------------------------------------------------------|
G|----0----------------------------0---------------------------------------|
D|----0--------------------0---2-------------------------------------------|
A|----2--------------------------------------------------------------------|
E|----3--------------------------------------------------------------------|

(G) Well I'm just waiting for my (D) chance to (C) come
Just a (G)silhou(D)ette against the (C) rising (D) sun
Watch the (Em) water, watch the (D) sky
Count the (Em) days as they go (C) by
I'm just (C) waiting for my (D) chance to (G) come

(G) Well it takes real (D) guts to be (C) alone
Going (G) head to (D) head with the (C) great (D) unknown
But there (Em)is no sweeter (D) sound, on the (Em) kings round I'm (C) bound
And just (C) waiting for my (D) chance to (G) come

'Cause it's (Em) hard to feel (G) like, you're worth (D) something in this (C) life
When you're (Em) walking next to (G) me, I can (D) hear my body (C) speak
We're just (C) waiting for a (D) chance to (G) come
We're just (C) waiting for a (D) chance to (G) come

Your (G) immortal smile is (D) burned in (C) me
When I (G) close my (D) eyes its (C) all (D) see
Among the (Em) canyons and the (D) stars
You're the (Em) guide inside my (C) heart
I'm just (C) waiting for my (D) chance to (G) come

And you're just (G) looking for a (D) way outta (C) here
Yeah, a (G) way to see this (D) old life (C) all (D) disappear
Take a (Em) gamble on your (D) heart, it will (Em) lead you through the  (C) dark
You're just (C) waiting for your (D) chance to (G) come

'Cause it's (Em) hard to feel (G) like, you're worth (D) something in this (C) life
When you're (Em) walking next to (G) me, I can (D) hear my body (C) speak
We're just (C) waiting for a (D) chance to (G) come
We're just (C) waiting for a (D) chance to (G) come

(Intro Tab x4)

And no (C) one's gonna (G) get in my (D) way
Gunna figure it out for (C) myself
Yeah no one's gonna (G) make me (D) stay
Gunna figure it out for (C) myself
'Cause I don't (G) need (D) nothing
I'm just (C) waiting for my (D) chance to (G) come

(The band fade out on the intro tab here, but I usually just leave it!)
Tap to rate this tab
# A B C D E F G H I J K L M N O P Q R S T U V W X Y Z