Song name
# A B C D E F G H I J K L M N O P Q R S T U V W X Y Z

Noah And The Whale - Waiting For My Chance To Come chords

Highlighted       Show chord diagrams
--------------------------------------------------------------------------------------------------
	                       Waiting For My Chance To Come - Noah And The Whale
--------------------------------------------------------------------------------------------------
Tabbed by Elliot Sharpe
Standard Tuning
First Tab but im pretty sure its right!

Chords
G     (355433)
Em    (022000)
D     (557775)
C     (335553)
Em1   (779987)

Main Riff:

Hold the chords but only strum the notes shown:

     G   Em1 D C

e|---3---777-5-3---------------------------------------------------|
B|---3---888-7-5---------------------------------------------------|
G|---4---------5---------------------------------------------------| x4
D|---5---------5---0-----0-----------------------------------------|
A|---5---------3-0---0h2-------------------------------------------|
E|---3---------3---------------------------------------------------|

Verse:
(Just palm mute the E and A strings on G and Em chords and the A and D strings on the C 
and D):
G                            D         C
Well I'm just waiting for my chance to come,
       G      D               C      D
Just a silhouette against the rising sun,
          Em               D              Em              C
Watch the water, watch the sky, Count the days as they go by,
         C              D         G
I'm just waiting for my chance to come,



Repeat Verse  (same Chords)



Chorus:
'Cause it's hard to feel like, you're worth something in this life,
            Em              G         D            C
When you're walking next to me, I can hear my body speak,
           C             D         G
We're just waiting for a chance to come,
           D       C     D         G
We're just waiting for a chance to come



Repeat Main Riff



Repeat Verse



Repeat Verse



Repeat Chorus



Last bit:
'Cause it's hard to feel like, you're worth something in this life,
            Em              G         D            C
When you're walking next to me, I can hear my body speak,
           C             D         G
We're just waiting for a chance to come,
           D       C     D         G
We're just waiting for a chance to come



Repeat Main Riff and Finish with a G chord
Tap to rate this tab
# A B C D E F G H I J K L M N O P Q R S T U V W X Y Z