Song name
# A B C D E F G H I J K L M N O P Q R S T U V W X Y Z

Noah And The Whale - My Broken Heart tab

-------------------------------------------------------------------------------
			     "My Broken Heart" - Noah and the Whale
-------------------------------------------------------------------------------
Tabbed by:Scott
Email:sjhanson5@gmail.com

Tuning: standard with capo 2
Got this from watching a video of them playing live. Capo 2nd fret. 
The chords should be right but I'm guessing on the picking. 

intro
   Am        D/A
e|----5-----------------|
B|------5----3----------|
G|-5-----5-----0---0----|
D|--7-----7-----4-4-4---|x4
A|---------------5------|
E|-5---------5----------|
0:21 "with my whole being.."
   F         C/G
e|----------------------|
B|----1---------1-------|
G|-2---2-----0---0------|
D|--3---3-----2---2-----|x2
A|---3---3-----3---3----|
E|-1---------3----------|
0:32 "but I'll be lonely.."
   D/A             C/G
e|----------------------------------|
B|----3-------3--------1-------1----|
G|--0--0----0--0-----0--0----0--0---|
D|------4-------4--------2-------2--|x2
A|---5---5---5---5----3---3---3---3-|
E|-5-------5--------3-------3-------|
0:53 Instrumental
   Am        D/A                          
e|----5-----------------|
B|------5----3----------|
G|-5-----5-----0---0----|
D|--7-----7-----4-4-4---|x4
A|---------------5------|
E|-5---------5----------|
1:15 "broken heart's a fickle thing..."                                   
   Am        D/A                          
e|----5-----------------|
B|------5----3----------|
G|-5-----5-----0---0----|
D|--7-----7-----4-4-4---|x2
A|---------------5------|
E|-5---------5----------|
1:26 "Oh i didn't marry..."
   F         C/G
e|----------------------|
B|----1---------1-------|
G|-2---2-----0---0------|
D|--3---3-----2---2-----|x2
A|---3---3-----3---3----|
E|-1---------3----------|
1:37 "But i'll be laughing..."
   D/A             C/G
e|----------------------------------|
B|----3-------3--------1-------1----|
G|--0--0----0--0-----0--0----0--0---|
D|------4-------4--------2-------2--|x2
A|---5---5---5---5----3---3---3---3-|
E|-5-------5--------3-------3-------|
1:58  instrumental
  Am    D/A  G    C/G 
e|-5-5--0-0--3-3--0-0----|
B|-5-5--3-3--3-3--1-1----|
G|-5-5--0-0--4-4--0-0----|
D|-7-7--4-4--5-5--2-2----|x8
A|-7----5----5----3------|
E|-5----5----3----3------|
2:42  "You can't break..."
  D/A  C/G G       G   
e|------------3-------3--------|
B|-------------3-------3-------|
G|--------------4-------4------|
D|-4---2----5----5--5----5-----|x2
A|-5---3-----5-------5---------|
E|-5---3---3-------3-----------|
3:03  Instrumental
  Am    D/A  G    C/G 
e|-5-5--0-0--3-3--0-0----|
B|-5-5--3-3--3-3--1-1----|
G|-5-5--0-0--4-4--0-0----|
D|-7-7--4-4--5-5--2-2----|x4
A|-7----5----5----3------|
E|-5----5----3----3------|
3:25
  Am    D/A  
e|-5----0----------------|
B|-5----3----------------|
G|-5----0----------------|
D|-7----4----------------|x a lot till the end
A|-7----5----------------|
E|-5----5----------------|
Tap to rate this tab
# A B C D E F G H I J K L M N O P Q R S T U V W X Y Z