Song name
# A B C D E F G H I J K L M N O P Q R S T U V W X Y Z

Noah And The Whale - Instrumental Ii tab

-------------------------------------------------------------------------------
	             Instrumental II  Noah And The Whale
-------------------------------------------------------------------------------


Tabbed by: fionacosine
Email: fiona-dewhurst@hotmail.co.uk

Tuning: Open D


D |--------------------------------------------------------------------------|
A |----------4/-5-4---------------------------------------0------------------|
F#|---5-------------5-3p-0---------------------------------------------------|
D |--------------------------5--------2/-4-2-0-0-h2p-0------------0-h2p-0----|
A |-5----------------------5----------------------------------------------0--|
D |-0-----0----------------5--------0-------------------5-------0------------|

D |--------------------------------------------------------------------------|
A |----------4/-5-4---------------------------------------0------------------|
F#|---5-------------5-3p-0---------------------------------------------------|
D |--------------------------5--------2/-4-2-0-0-h2p-0------------0-h2p-0----|
A |-5----------------------5----------------------------5-----------------0--|
D |-0-----0----------------5--------0-------------------5-------0------------|

D |--------------------------------------------------------------------------|
A |-5/-7/-9--9------5/-7/-9--9------7\-5-------------------------------------|
F#|-0/-0/-0--0------0/-0/-0--0------0\-0------5-0------8---------------------|
D |-0/-0/-0--0------0/-0/-0--0------0\-0------0-4------7-------0-h2p-0-------|
A |-5/-7/-9--9------5/-7/-9--9------7\-5---------------5--------------0------|
D |-------------------------------------------5-0------5-----0---------------|


************************************
| /   slide up
| \   slide down
| h   hammer-on
| p   pull-off
| ~   vibrato
************************************

Tap to rate this tab
# A B C D E F G H I J K L M N O P Q R S T U V W X Y Z