Song name
# A B C D E F G H I J K L M N O P Q R S T U V W X Y Z

Noah And The Whale - Do What You Do chords

Highlighted       Show chord diagrams
This is version of Do what you do can be played in standard tuning, but if you want to 
play it along with with the song tune your whole guitar down half a step. Or down a full 
step and put a capo on the first fret. Whatever is easier for you.

Chords used:

F  (133211)
G  (320033)
Am (X02210)
C  (X32010)



Intro

eb|---x---------------------------------------|
Bb|---1---1---1---1---------------------------|
Gb|---2---------------2---0---2---0-----------|
Db|---3-------------------------------3---2---|
Ab|---3---------------------------------------|
Eb|---x---------------------------------------|

eb|---x---------------------------------------3---3---3h5---3---|
Bb|---1---1---1---1---------------------------3-------------3---|
Gb|---2---------------2---0---2---0-----------0-------------0---|
Db|---3-------------------------------3---2---0-------------0---|
Ab|---3---------------------------------------2-------------2---|
Eb|---x---------------------------------------3-------------3---|



            C
There's a pleasure

We must all feel
G
And it's a pleasure I know
F
Of losing your heart
C
And then letting love grow


         C
What can I say

That is  simpler
G
That now is all there is
F
That you're free to be any person
C
And you're all that you give


            F                     G
'Cause my bones were made in the womb
                  F                   G
And they're the grains I leave in my tomb
            F               G
And every piece will be consumed
        F                G
By the love my heart endured


           C   Am
But if you do
         F   G
What you do
        C    Am   F   G
Yeah, you'll do fine
             C   Am
Yeah, if you do
         F   G
What you do
             C    Am   F   G
Yeah, well, you'll do fine


              F
Oh, and when love comes a-calling
 C
Don't forget the tune
          F
And when love comes a-calling
 C
Don't forget the tune
         G
And just do what you do


C, Am, F, G x4


             F                          G
Oh, and the ones who taught you how to live
          F                 G
Oh, they know no more than you
           F                     G
So if you trust what's in your heart
           F            G
Oh, what better can you do


            C  Am        F   G
Than if you do what you do
        C   Am   F    G  F  C
Yeah, you'll do fine
Tap to rate this tab
 
# A B C D E F G H I J K L M N O P Q R S T U V W X Y Z