Song name
# A B C D E F G H I J K L M N O P Q R S T U V W X Y Z

Noah And The Whale - Our Window tab

-------------------------------------------------------------------------------
                             Our Window - Noah & The Whale
-------------------------------------------------------------------------------
Tabbed by: Davec52
E-mail: davec5277@gmail.com

Tuning: D#ADGBE

Yes i know this is weird tuning, but to match the piano, i had to include the bottom D#

The rest of the song is played in standard tuning, but you can have a second guitar play 
the intro, as well as in between verses.


e |-------------------------|
B |-------------------------|
G |-------3--------------3--|  x7 (after the 7th time, lay the 6th string once)
D |----0--------------0-----|
A |-------------------------|
D#|2--------------0---------|

e |-----------------------------1---------------------|
B |---3--3--1---------3-------3---3--1--3--1----------|
G |-------------3---0--------------------------3--0---| x2 (also played between verses)
D |---------------------------------------------------|
A |---------------------------------------------------|
D#|---------------------------------------------------|



************************************

| /   slide up
| \   slide down
| h   hammer-on
| p   pull-off
| ~   vibrato
| +   harmonic
| x   Mute note
| b   Bend
| pb  Pre-bend
| br  Bend release
| pbr Pre-bend release
| brb Bend release bend

************************************
Tap to rate this tab
# A B C D E F G H I J K L M N O P Q R S T U V W X Y Z