Song name
# A B C D E F G H I J K L M N O P Q R S T U V W X Y Z

Noah Gundersen - Caroline tab

E |-----0-----0---------0---0-------------0-----------0--------------0---------0-----0--|
A |-------------------------------------------------------------------------------------|
D |-------------------------------------------------------------------------------------|
G |----4h6---------6---4---1-----4h6-----------6----13------4h6-------6----4-----1------|
B |---------------5-----------------------------5--------12---------------5-------------|
e |-------------------------------------------------------------------------------------|


E | ---------------0------0------0-----|
A | -----------------------------------|
D | ------------4h6-----4------2-------|
G |------------------------------------|
B | -----------------------------------|
e | -----------------------------------|


This goes on throughout the song, but I haven't figured out the rest yet. I will update 
it when I do. Let me know if you have any suggestions.
Tap to rate this tab
 
# A B C D E F G H I J K L M N O P Q R S T U V W X Y Z