Song name
# A B C D E F G H I J K L M N O P Q R S T U V W X Y Z

Noah Gundersen - Honest Songs tab

|--------------------------------------------------------|
|-Artist----:-Noah-Gundersen-----------------------------|
|-Track-----:-Honest-Songs-(Intro Tab)-------------------| 
|-Album-----:-Family-------------------------------------|
|-Tabbed-by-:-Mingo--------------------------------------| 
|-Capo-on---:-4------------------------------------------| 
|--------------------------------------------------------|


|--INTRO----------------------------------------------------------|

e|-----------------------------0-0-2p0-----------2-----2---------|
B|------------------3--------3---------3-0-1-0---3---3-3-3-------|
G|---------0h2--2h4---4-2-0----------------------0h2---2-0-------|
D|----0h2--------------------------------------------------2-----|
A|---------------------------------------------------------------|
E|---------------------------------------------------------------|

e|-------------------------------------------0-0-2p0-------------|
B|--------------------------------3--------3---------3-0-1-0-----|
G|----------0----2-------0h2--2h4---4-2-0------------------------|
D|--0--0h2----2--0--0h2------------------------------------------|
A|---------------------------------------------------------------|
E|---------------------------------------------------------------|

e|--2-----2------------------------------------------------------|
B|--3---3-3-3----------------------------------------------------|
G|--0h2---2-0------------0----2----------------------------------|
D|------------2--0--0h2----2--0----------------------------------|
A|----------------------------2----------------------------------|
E|----------------------------3----------------------------------|

Enjoy, x
Tap to rate this tab
 
# A B C D E F G H I J K L M N O P Q R S T U V W X Y Z