Song name
# A B C D E F G H I J K L M N O P Q R S T U V W X Y Z

Noble Rot - Kicked To The Curb tab

Tabbed by:
Email:jellydonut10@sbcglobal.net

Tuning:Standard

e|---------------------------------------------------------------------------|
B|---------------------------------------------------------------------------|
G|---------------------------------------------------------------------------|
D|-----------1-----------1-------------1----------1---3----------1-----------|
A|---1---3-------1---3------1---1---3-----1---3-----------1--3------1---3----|
E|---------------------------------------------------------------------------|

e|---------------------------------------------------------------------------|
B|---------------------------------------------------------------------------|
G|---------------------------------------------------------------------------|
D|--1---3--4---4---3---1---3---1---------------------------------------------|
A|----------------------------------3----------------------------------------|
E|---------------------------------------------------------------------------|
http://www.myspace.com/noblerotband

Tap to rate this tab
# A B C D E F G H I J K L M N O P Q R S T U V W X Y Z