Song name
# A B C D E F G H I J K L M N O P Q R S T U V W X Y Z

Nobody Knew - 18 tab

Help us improve GuitareTab! Take a short survey!
Artist - Sound And Fury
Album - Sound And Fury
Written By - Griffin
Year - 2008

Tabbed Out By AlexC15

www.myspace.com/soundandfuryrocks

Intro - Played Twice

|-----------------------|
|-----------------------|
|-----------------------|   X3
|5-2-2-2-2-2------------|
|7-0-0-0-0-0------------|
|-----------------------|

|-----------------------|
|-----------------------|
|-----------------------|
|5----------------------|   X1
|7-5-5-5-5-5------------|
|--3-3-3-3-3------------|



Verse - Played Twice


|-----------------------|
|-----------------------|
|-----------------------|   X3
|5-2-2-2-2-2------------|
|7-0-0-0-0-0------------|
|-----------------------|
 

|-----------------------|
|-----------------------|
|-----------------------|
|5----------------------|   X1
|7-5-5-5-5-5------------|
|--3-3-3-3-3------------|


Pre - Chorus. Listen To The Song For How Many Times You Play It

"Im So Sick Of Hearing It..."

|------------------------|
|------------------------|
|------------------------|
|7-7-7-7-7-7-7-7-7-7-7-7-|
|5-5-5-5-5-5-5-5-5-5-5-5-|
|------------------------|

"And I'll Be Damned..."

|--------------------------|
|--------------------------|
|--------------------------|
|9-9-9-9-9-9-9-9-9-9-9-9-9-|
|7-7-7-7-7-7-7-7-7-7-7-7-7-|
|--------------------------|


Chorus 

|-------------------------|
|-------------------------|
|-------------------------|
|2-2-----5----------------|     X 3
|0-0-5-5-3-5-5------------|  
|----3-3---3-3------------|

|-------------------------|
|-------------------------|
|-------------------------|
|2-2----------------------|     X 1
|0-0-5-5-2----------------|
|----3-3-0----------------|



Song Structure

Intro 
Verse
Pe Chorus
Chorus
Intro
Verse
Pre Chorus
Chorus
Solo(No Tab)
Chorus


Please Note, For The Solo I Would Recomend Playing The Intro Twice.

Related for 18 tab