Song name
# A B C D E F G H I J K L M N O P Q R S T U V W X Y Z

Nobody Knew - Travel Back tab

---------------------------------------------------------------------------
			     TRAVEL BACK - Travel Back
---------------------------------------------------------------------------
Tabbed by: Eric
Email: nobodyknew_music@hotmail.com

Tuning: Standard

www.nobodyknew.net
www.myspace.com/nobodyknew
www.purevolume.com/nobodyknew


CHORDS USED:
	      G		 D/F#		 E?	    C2
e|------------3----------3----3----------3----------3----------------------|
B|------------3----------3----3----------3----------3----------------------|
G|------------0----------2----2----------0----------0----------------------|
D|------------0----------0-or-0----------2----------2----------------------|
A|------------2----------0----x----------2----------3----------------------|
E|------------3----------2----2----------0---------(0)---------------------|


Intro;(2nd guitar stums the chords lightly)
   G                               D/F#
e|------------------------------------------------------------------|
B|------------------------------------------------------------------|
G|---------0---------------0---------------2---------------2--------|
D|-----0-----0---0-----0-----0---0-----0-----0---0-----0-----0---0--|
A|---2---2-----2-----2---2-----2-----0---0-----0-----0---0-----0----|
E|-3---------------3---------------2---------------2----------------|

   E?                              C2
e|------------------------------------------------------------------|
B|-----------------------------------------3---------------3--------|
G|---------0---------------0-----------0-----0---0-----0-----0---0--|
D|-----2-----2---2-----2-----2---2---2---2-----2-----2---2-----2----|
A|---2---2-----2-----2---2-----2---3---------------3----------------|
E|-0---------------0------------------------------------------------|

   G                               D/F#
e|------------------------------------------------------------------|
B|-------------------------3-------------------------------3--------|
G|---------0-------------------------------2------------------------|
D|-----0-----0---0-----0-----0---0-----0-----0---0-----0-----0---0--|
A|---2---2-----2-----2---2-----2-----0---0-----0-----0---0-----0----|
E|-3---------------3---------------2---------------2----------------|

   E?                              C2
e|---------------------------------------------------------3--------|
B|-------------------------3---------------3------------------------|
G|---------0---------------------------0-----0---0-----0-----0---0--|
D|-----2-----2---2-----2-----2---2---2---2-----2-----2---2-----2----|
A|---2---2-----2-----2---2-----2---3---------------3----------------|
E|-0---------------0------------------------------------------------|

Then...

G, D/F#, E, C2, (play C2 until you hit "wake up")


       G		D/F#
So you wake up, feeling all alone.
E		       C2
Remembring last night, crying on the phone.
G	      D/F#
So I wake up, knowing that you're gone.
E			    C2
I turn my head to the side, and wish you hadn't cried.


(Repeat intro)

	   G	                 D/F#
My head is spinning, questions I need to ask.
E			      C2
Your running in circles, and now my mind is clear.
G		   D/F#
You don't want me.
E		  C2... (keep playing and start getting louder)
You don't want me near.


Chorus:

D/F#		 E			C2
I know that the times we had were the best.
D/F#		 E			  C2
I know that the time we shared was your best.


G	       D/F#			E		C2
I know that I need you hear all the time. (let's not fight)
G	    D/F#	      E	   C2
I know, I want you here in my arms tonight.


Chorus:

D/F#		 E			C2
I know that the times we had were the best.
D/F#		 E			  C2...(keep playing and start
I know that the time we shared was your best.	    getting louder)


Solo/Interlude:(chords can be played during it)(x2)
   G			   D/F#			   E			   C2
e|-------------------------------------------------------------------------333-|
B|-------------------------------------------------------------------------333-|
G|-----0-----0-----0-----0-----2-----2-----2-----2----0-----0-----0-----2--000-|
D|-------0-----------0-----------0-----------0----------2-----------2------222-|
A|-------------------------------------------------------------------------333-|
E|-3-3-----3---3-3-----3---2-2-----2---2-2-----2---0-0----0---0-0-----0--------|
							      repeat the C2 alot

Chorus:

D/F#		 E			C2
I know that the times we had were the best.
D/F#		 E			  C2
I know that the time we shared was your best.

G	       D/F#			E		C2
I know that I need you hear all the time. (let's not fight)
G	    D/F#	      E	   C2
I know, I want you here in my arms tonight.

(End with G)
Tap to rate this tab
# A B C D E F G H I J K L M N O P Q R S T U V W X Y Z