Song name
# A B C D E F G H I J K L M N O P Q R S T U V W X Y Z

Nobody Knew - Detailed Scene tab

---------------------------------------------------------------------------
			     DETAILED SCENE - Nobody Knew 
---------------------------------------------------------------------------

Tabbed by: Eric Minardi
Email: nobodyknew_music@hotmail.com

Tuning: Standard
www.nobodyknew.net
www.myspace.com/nobodyknew
www.purevolume.com/nobodyknew

... = strum a few times

INTRO (ONLY FOR ACOUSTIC VERSION - NOT FULL BAND)
e|--------3----3-----------------3-----3--------------------3---3...|
B|-----1-----1----1-----1-----1-----1-----1-----1--------1------1...|
G|--2----------------2-----------------------0--------0---------0...|
D|-------------------------2-----------------------0------------2...|
A|------------------------------------------------------------------|
E|------------------------------------------------------------------|

e|--------3----3-----------------3-----3--------------------3---3...|
B|-----1-----1----1-----1-----1-----1-----1-----1--------1------1...|
G|--2----------------2-----------------------0--------0---------0...|
D|-------------------------2-----------------------0------------2...|
A|--------------------------------------------------------------3...|
E|------------------------------------------------------------------|



CHORDS USED IN THIS SONG:(these aren't the right names for each chord cause
			  these are mostly just parts of other chords...)


    C     F	Am    G/B   C2    F2    G
e|--3-----3-----0-----3-----3-----3-----3---------------
B|--1-----1-----1-----1-----0-----0-----1---------------
G|--0-----2-----2-----0-----0-----2-----0---------------
D|--2-----3-----2-----0-----2-----3-----0---------------
A|--3-----------0-----2-----3-----------2---------------
E|--------------------------------------3---------------

(START HERE FOR FULL BAND VERSION OF SONG)
C	            F
Here it goes, and nobody knows.
C			      F
It's time to live with what I chose.
G/B                   C 
I remember a detailed scene, 
G/B			   C	
while hearing words as you spoke so clean.
F		 C
I was listening. Can't you understand that?

F		          Am
There's so many things we missed out on.
G/B			C
We had some fun and then you were gone.
F			  Am
There's so many things we missed out on.
G                       C       C2   C    C2
And nobody knows but I miss that.


C		      F
So draw me a picture, one with you in it.
C               F         
I'd jump in and catch you.
G/B        	  C
Wouldn't take one minute...
G/B    C    
Cuz... I miss you... 


F		          Am
There's so many things that we missed out on.
G/B			C
We had some fun and then you were gone.
F			  Am
There's so many things we missed out on.
G                       C       C2   C    C2
And nobody knows but I miss that.


OK for the interlude i just repeat this same riff...

(F2 F F2 F C C2 C C2) you repeat this a couple times and then add in
		      the lyrics...

So this is how it is...

So this is how it will be...

Why won't you just be with me?


F		          Am
There's so many things we missed out on.
G/B			C
We had some fun and then you were gone.
F			  Am
There's so many things we missed out on.
G                       C       C2   C    C2....(fade out)
And nobody knows but I miss that.


Tap to rate this tab
# A B C D E F G H I J K L M N O P Q R S T U V W X Y Z