Song name
# A B C D E F G H I J K L M N O P Q R S T U V W X Y Z

Nobunny - Church Mouse tab

From "Love Visions" (2008, Bubbledumb Records)
Nobunny's official site- http://www.myspace.com/nobunnylovesyou

Intro
  P.M.----------------------------------------------------------------|
e-----------------------------------------------------------------------------|
B-----------------------------------------------------------------------------|
G-----------------------------------------------------------------------------|
D--------------------------------------------------7--------------------------|
A------------------------------7777-7777-7777-7777-7--------------------------|
E----------5555-5555-5555-5555-5555-5555-5555-5555-5--------------------------|

Main Riff:
e----------------------------------------------------------------------------|
B----------0-0h2p0-----------0-0h2p0-----------------------------------------|
G----------------------------------------------------------------------------|
D-------------------------------------7-6-4-2-6-4-2-4------------------------|
A--7-(x5)----------4-(x5)-------------5-4-2-0-4-2-0-2------------------------|
E--5-(x5)----------2-(x5)----------------------------------------------------|


e----------------------------------------------------------------------------|
B----------0-0h2p0-----------0-0h2p0-----------------------------------------|
G----------------------------------------------------------------------------|
D-------------------------------------7-6-4-2--------------------------------|
A--7-(x5)----------4-(x5)-------------5-4-2-0-2-4-6-7-9-7-6-4----------------|
E--5-(x5)----------2-(x5)---------------------0-2-4-5-7-5-4-2----------------|


Rest on verse, then repeat main riff.

Bridge:


e----------------------------------------------------------4---5---/12~------|
B--------------------------------------------------/5---7--------------------|
G----------------------------------------------------------------------------|
D--6-----------6-----4-----6-------------------------------------------------|
A--4-----4-----4-----2-----4-----4-------------------------------------------|
E--------2-----------------------2-------------------------------------------|

Back to Main riff, Repeat. That's pretty much it.
Tap to rate this tab
 
# A B C D E F G H I J K L M N O P Q R S T U V W X Y Z