Song name
# A B C D E F G H I J K L M N O P Q R S T U V W X Y Z

Nobunny - I Am A Girlfriend tab

The basic chords used in the song are something like

e|-----------------------|
B|-----------------------|
G|--------10--------10---|
D|---10---10---7----10---|
A|---10---8----7----8----|
E|---8---------5---------|

and the other part goes like

e|-7-8-7-8-7-8-7-8-12-13-12-13-12-13-12-13--|
B|------------------------------------------|
G|------------------------------------------|
D|------------------------------------------|
A|------------------------------------------|
E|------------------------------------------|

e|-4-5-4-5-4-5-4-5-12-13-12-13-12-13-12-13--|
B|------------------------------------------|
G|------------------------------------------|
D|------------------------------------------|
A|------------------------------------------|
E|------------------------------------------|
Tap to rate this tab
 
# A B C D E F G H I J K L M N O P Q R S T U V W X Y Z