Song name
# A B C D E F G H I J K L M N O P Q R S T U V W X Y Z

Nobuo Uematsu - The Decive Battle tab

Song: The Decisive Battle (Final Fantasy VI)
Author: Nobuo Uematsu
Tabbed By: Spazzoidd (Kayton)
Email: raver_4_lyfe@hotmail.com
Open to questions, comments, creative criticism, whatever.
Tuning: Drop D

This is my first ‘official’ tab, I’ve been searching for a decent Kurikinton Fox-like 
for this song for a while now, so I decided to make one for myself. Enjoy!

E|----------------------------------------------------|
B|----------------------------------------------------|
G|----------------------------------------------------|
D|----------------------------------------------------|
A|t14r10r7-t15r10r7—t16r10r7-t15r10r7—t12r9—t12s14----|
D|----------------------------------------------------|
^x4
E|--------------------------------|--------------------------------------|
B|--------------------------------|----(12)(10)(8)(7)(8)(10)(7)----------|
G|---(11)(9)(7)(6)(7)(9)(6)-------|-(9)--9--7---5--4--5--7—--4-(7)(11)---|
D|-(9)-9--7--5--4--5--7--4-(7)(11)|--7--------------------------5--9-----|
A|--7-----------------------5--9--|--------------------------------------|
D|--------------------------------|--------------------------------------|
  ^x2                              ^x2, but on the last time hover the last 5 on the D 
and play this:

E|----|
B|----|
G|----|
D|-7~~|
A|-7~~|
D|-7~~|

Legend:
T=tap
R=release
S=slide
(#)=optional note
~=let ring
Tap to rate this tab
 
# A B C D E F G H I J K L M N O P Q R S T U V W X Y Z