Song name
# A B C D E F G H I J K L M N O P Q R S T U V W X Y Z

Nobuo Uematsu - Besaid Island tab

-------------------------------------------------------------------------------
			     Besaid Island - Nobuo Uematsu
-------------------------------------------------------------------------------
Tabbed by: Basse93

Tuning: Standard

Intro:
e|------7-5----2-0---------------7-5----2-0-----2----|
B|-------------------3------------------------3------|
G|--2------------------2-----2-----------------------|
D|---------------------------------------------------|
A|---------------------------------------------------|
E|---------------------------------------------------|
- (CAN BE PLAYED IN HERMONIC)
 
-------------------------------------------------------------------------------



e|---2--x--2--x--7--5--x--5--x--2--0--x--0--x--3-----x-----x-----|
B|---3--x--3--x--5--3--x--3--x--3--3--x--3--x--3--3--x--3--x--3--|
G|---2--x--2--x--0--4--x--4--x--2--2--x--2--x--0--2--x--2--x--2--|
D|---0--x--0--x--0--0--x--0--x--0--0--x--0--x--0--2--x--2--x--2--|
A|---------------------------------------------2--0-----0-----0--|
E|---------------------------------------------3-----------------|

e|---2--x--2--x--7--5--x--5--x--2--0--x--0--x-----2--x--2--x--2--|
B|---3--x--3--x--5--3--x--3--x--3--3--x--3--x--3--3--x--3--x--3--|
G|---2--x--2--x--0--4--x--4--x--2--2--x--2--x--2--2--x--2--x--2--|
D|---0--x--0--x--0--0--x--0--x--0--0--x--0--x--2--0--x--0--x--0--|
A|---------------------------------------------0-----------------|
E|---------------------------------------------------------------|

Just repeat everything exept the intro, as many times as needed.

| /  slide up
| \  slide down
| h  hammer-on
| p  pull-off
| ~  vibrato
| +  harmonic
| x  Mute note
===============================================================================
Tap to rate this tab
# A B C D E F G H I J K L M N O P Q R S T U V W X Y Z