Song name
# A B C D E F G H I J K L M N O P Q R S T U V W X Y Z

Nobuo Uematsu - Final Fantasy 9 - Rose Of May tab

Rose Of May
Final Fantasy 9
Composed by Nobuo Uematsu

You need a capo on the 3rd fret.
This was arranged by me.


Guitar
     E  E  E  E  E  E     E  E  E  E  E  E     Q.     E  E  E
E||--------------0--1--|--0-----------------|---------1--------|
B||-----------3--------|--1-----------------|--1------1--3-----|
G||-----------2--------|-----------------0--|---------------3--|
D||--------------------|-----------0--2-----|------------------|
A||--------------------|--3-----3-----------|---------1--------|
E||--------------------|-----3--------------|------------------|

  E  E  E  E  E  E     Q.     E  E  E     E  E  E  E  E  E     Q.     E  E  E
--------------------|------------0--1--|--0-----------------|---------1--------|
--------------------|--3------3--------|--1-----------------|--1------1--3-----|
--2--------------2--|---------2--------|-----------------0--|---------------3--|
--3--------2--3-----|---------0--------|-----------0--2-----|------------------|
--5--0--5-----------|------------------|--3-----3-----------|---------1--------|
--------------------|------------------|-----3--------------|------------------|

  E  E  E  E  E  E     H.                E  E  E  Q    E     E  E  E  Q    E
--------------------|---------------||------0--1--3----3--|--5--3-------------|
--3-----------------|--3------------||---3--------1-------|--6-----6--5----5--|
--2--------------2--|---------------||*--2--------0-------|--5--------5-------|
-----------2--3-----|---------------||*--0--------2-------|--3--------5-------|
--5--0--5-----------|---------------||--------------------|-------------------|
--------------------|---------------||--------------------|-------------------|

  E  E  E  Q    E     E  E  E  E  E  E     E  E  E  Q    E
-----0--1----------|-----5--3--1--0-----|-----0--1--3----3--|
--3----------------|-----------------1--|--3--------1-------|
--2--------3----3--|--2-----------------|--2--------0-------|
--0--------3-------|--3--------3--------|--0--------2-------|
-----------1-------|--2--------1--------|-------------------|
-------------------|--------------------|-------------------|

  E  E  E  E  E  E     E   E  E  E  E  E     E  E  E  Q.
--5--3--------------|---------------------|-----1--0---------|
--6-----6--5--3-----|-----10--8--6--5--3--|--1--------3------|
--5--------5-----5--|------------3--------|--0--------2------|
--3--------5--------|--8---------5--------|--2--------0------|
--------------------|--8---------5--------|--3---------------|
--------------------|--6------------------|------------------|

  E  E  E  Q    E     E  E  E  Q    E     E  E  E  Q    E
-----0--1--3----3--|--5--3-------------|-----0--1----------|
--3--------1-------|--6-----6--5----5--|--3----------------|
--2--------0-------|--5--------5-------|--2--------3----3--|
--0--------2-------|--3--------5-------|--0--------3-------|
-------------------|-------------------|-----------1-------|
-------------------|-------------------|-------------------|

  E  E  E  E  E  E     E  E  E  Q    E     E  E  E  E  E  E
-----5--3--1--0-----|-----0--1--3----3--|--5--3--------------|
-----------------1--|--3--------1-------|--6-----6--5--3-----|
--2-----------------|--2--------0-------|--5--------5-----5--|
--3--------3--------|--0--------2-------|--3--------5--------|
--2--------1--------|-------------------|--------------------|
--------------------|-------------------|--------------------|

  E   E  E  E  E  E     E  E  E  E  E  E     E   E   E  E  E   E
---------------------|--------0-----------|--8----------8---------|
-----10--8--6--5--3--|--1--3-----3-----3--|----------------8--11--|
------------3--------|--0--------2--2-----|-------------9---------|
--8---------5--------|--2--------0-----0--|---------10--------10--|
--8---------5--------|--3-----------0-----|-----10----------------|
--6------------------|--------------------|--8--------------------|

  E  E  E  E  E  E     E   E   E   E   E   E      E  E  E   Q.
--5-----3--1-----5--|--8----------------------|--------------------|
--------1-----------|---------------------11--|--10-----8----------|
--------------2--5--|-------------12----------|------------10------|
-----3-----3--------|---------10----------11--|---0-----0----------|
--------------------|-----10----------10------|------0------8------|
--1-----------------|--8-----------9----------|--------------------|

  E   E   E  E  E   E     E  E  E  E  E  E     E  E  E  E  E  E
--8----------8---------|--5-----3--1-----5--|--3-----------0--1--|
----------------8--11--|--------1-----------|-----------3--------|
-------------9---------|--------------2--5--|-----------4-----0--|
---------10--------10--|-----3-----3--------|--------5-----0-----|
-----10----------------|--------------------|-----5--------------|
--8--------------------|--1-----------------|--3-----------------|

  E  E  E  E  E  E     E  E  E  E  E  E     E  E  E  E  E  E
--0-----------------|--8--------8-----6--|--5-----3--1-----5--|
--------------------|-----------5--------|--------1-----------|
--------------0--5--|--------5--------5--|--------------2--5--|
-----------2--------|-----5--------5-----|-----3-----3--------|
--3-----3-----------|--------------------|--------------------|
-----3--------------|--6-----------------|--1-----------------|

  E   E   E   E   E   E      E  E  E   Q.        E  E  E  E  E  E
--8----------------------|--------------------|--5--------5--------|
---------------------11--|--10-----8----------|--------------5--8--|
-------------12----------|------------10------|-----------6--------|
---------10----------11--|---0-----0----------|--------7-----------|
-----10----------10------|------0------8------|-----7-----------0--|
--8-----------9----------|--------------------|--5-----------------|

  E  E  E  E  E  E     E  E  E  E  E  E     E  E  E  E  E  E
--1-----0--------1--|--0-----0--4--0--4--|--5--------------5---||
-----------3--------|-----3-----------0--|--------------5------||
--------2--------2--|--------------1-----|-----------6--------*||
-----3-----0--3-----|-----------0--------|--------5-----------*||
--0-----------------|--------2-----------|-----7---------------||
--------------------|--0--4--------------|--5------------------||

Duration Legend
---------------
W - whole
H - half
Q - quarter
E - 8th
S - 16th
T - 32nd
X - 64th
. - note dotted
|-n-|  - n-tuplets
Tap to rate this tab
 
# A B C D E F G H I J K L M N O P Q R S T U V W X Y Z