Guitaretab - guitar tabs
Song name
# A B C D E F G H I J K L M N O P Q R S T U V W X Y Z

Nobuo Uematsu - Aeris Theme tab

e-----------------------------|
B--3---2---0------------------|
G--------------2--------------|
D--------------------4--------|
A-----------------------------|
E-----------------------------|

e--------------------------------------------------|
B--3---2---0-------------------------------------0-|
G--------------2---------------0-----------0-------|
D--------------------2-----2-4---4-2-0-------------|
A--------------------------------------------------|
E--------------------------------------------------|

e--------------------------------------------------|
B--3---2---0-------------------------------------0-|
G--------------2---------------0-----------0-------|
D--------------------2-----2-4---4-2-0-------------|
A--------------------------------------------------|
E--------------------------------------------------|


e------------------------------0---------------|
B------3-----1-------------3-2---3-0-2---------|
G----2---------2---------2-------------2-------|
D--4-------------2-----4-------------------2---|
A----------------------------------------------|
E----------------------------------------------|

e------------------------------0---------------|
B------3-----1-------------3-2---3-0-2---------|
G----2---------2---------2-------------2-------|
D--4-------------2-----4-------------------2---|
A----------------------------------------------|
E----------------------------------------------|
[ Tab from: http://www.guitaretab.com/n/nobuo-uematsu/182935.html ]
e----------------------------------------|
B------3-----1---------------------------|
G----2---------2-------------------------|
D--4-------------2-----0h2p0---3-2-0-2-0-|
A----------------------------------------|
E----------------------------------------|

e---------------------------------------------|
B----------------------0-2-3---0--------------|
G--------------0-2-----------------0--2h4p2---|
D--0-2-4-----4--------------------------------|
A---------------------------------------------|
E---------------------------------------------|

e--------------------------------------------|
B--------------------------------------0-2-3-|
G--2-----------4-2---------2-----------------|
D----4-------------0---------4---------------|
A------4-----------------------4-------------|
E--------------------------------------------|

e------------------------------------------2-2---|
B--3---2---0---------------3---2---0---2---------|
G--------------2---------------------------------|
D--------------------4---------------------------|
A------------------------------------------------|
E------------------------------------------------|

e----------------------------------------------------|
B--3---2---0-----------------------------------------|
G--------------2---------------0-----------0---------|
D--------------------2-----2-4---4-2-0-------4-0-2-0-|
A----------------------------------------------------|
E----------------------------------------------------|

e--------------------------------------------------|
B--3---2---0-------------------------------------0-|
G--------------2---------------0-----------0-------|
D--------------------2-----2-4---4-2-0-------------|
A--------------------------------------------------|
E--------------------------------------------------|
Related for Aeris Theme tab
Advertisement will be closed in 10 seconds