Song name
# A B C D E F G H I J K L M N O P Q R S T U V W X Y Z

Nobuo Uematsu - Hymn Of The Faith tab

Hymn of the Fayth
Composed by Nobuo Uematsu and Masashi Hamauzu
Final Fantasy X (PS2)
Tabbed by Adam Houtz



e|----------------------------------------------------------------|
B|----------------------------------------------------------------|
G|---------------2-----2--2--------4--6--2--4-----4--2--4s6-------|
D|-2--5--4--7----2--5--2--4--2-----4--6--2--4-----4--2--4s7--4----|
A|-2--5--4--7----0--5--0--4--2-----2--4--0--2-----2--0--2s4--4----|
E|-0--3--2--5-------3--------0-------------------------------2----|
 |
e|-0--3--2--5----5--3--5--7--0------------------------------------|
B|---------------------------------12-14-10-12----12-10-1214-7----|
G|----------------------------------------------------------------|
D|----------------------------------------------------------------|
A|----------------------------------------------------------------|
E|----------------------------------------------------------------|
  Repeat (Optional)

  Outro
e|--------------------------------|
B|--------------------------------|
G|--------------------------------|
D|-9--9--11-11-12-----11-7--7--9--|
A|-9--9--11-11-12-----11-7--7--9--|
E|-7--7--9--9--10-----9--5--5--7--|
 |
e|--------------------------------|
B|-0--0--2-2h3-3------2-----------|
G|-----------------------2-2h4-4--|
D|--------------------------------|
A|--------------------------------|
E|--------------------------------|
Tap to rate this tab
 
# A B C D E F G H I J K L M N O P Q R S T U V W X Y Z