Song name
# A B C D E F G H I J K L M N O P Q R S T U V W X Y Z

Nobuo Uematsu - Tidus Theme tab

each measure doesn't have anything to do with the musical rhythm, But the notes are 
in the order listed. sorry for inconsistent spacing.


E||-BY RYAN FIGUERAS---|-------------------|--------------------|
B||-7--5-3-1-----------|--------1----------|--4-3--1-----1--0---|
G||-7--5-3-1-----------|---1--3------------|-3--------3-----0---|
D||-7--5-3-1-----------|--1--------1-1-----|----------------0---|
A||--------------------|-------------------|----------------2---|
E||--------------------|-------------------|--------------------|

E||------0-------------|-------0-----------|-------0------------|
B||----2---2-----------|-----2---2---------|-----2---2----------|
G||--0------0--0-------|---0------0--0-----|---0------0--0------|
D||----------3---------|-----------3-------|-----------3--------|
A||3-------------------|-3-----------------|--3-----------------|
E||--------------------|-------------------|--------------------|


E||------0-------------|-------0-----------|-------0------------|
B||----2---2-----------|-----2---2---------|-----2---2----------|
G||--0------0--0-------|---0------0--0-----|---0------0--0------|
D||----------3---------|-----------3-------|--------------------|
A||3-------------------|3------------------|-3---------2--------|
E||--------------------|-------------------|--------------------|
    DO NOT COPY IN ANY WAY WITHOUT CREDITING RYAN FIGUERAS

E||-----3--------------|----3--------------|------1-------------|
B||---1---1--0---------|---1--1-0----------|----0--0------------|
G||--2----------0------|--2--------0-------|---2-----2--2-------|
D||-----------2--------|---------2---------|----------3---------|
A||-0------------------|0------------------|--------------------|
E||--------------------|-------------------|--3-----------------|
     DO NOT COPY IN ANY WAY WITHOUT CREDITING RYAN FIGUERAS
E||-----1--------------|----0--------------|-----0--------------|
B||----0-0-------------|---3-3-------------|----3-3-------------|
G||---2---2--2---------|--0----0-0---------|---0----0---0-------|
D||--------3-----------|--------2----------|----------2---------|
A||--------------------|-------------------|----------0---------|
E||--3-----------------|-0-----------------|-0------------------|


E||------3------3------|----1----1---------|-------1-------1----|
B||-----3-3---3--------|---3-3--3----------|------3--3---3------|
G||----2----2----------|--2---2------------|-----1-----1--------|
D||---0----------------|-0-----------------|---0----------------|
A||--------------------|-------------------|--------------------|
E||--------------------|-------------------|--------------------|

E||----4-----4---------|------1-----1------|--------------------|
B||---1-1--1-----------|----0--0--0--------|-3--3---------------|
G||--1---1-------------|--2-----2----------|-2--2---------------|
D||-0------------------|-------------------|-0--0---------------|
A||--------------------|-------------------|-0--0---------------|
E||--------------------|--3----------------|--------------------|



E||------0-------------|-------0-----------|-------0------------|
B||----2---2-----------|-----2---2---------|-----2---2----------|
G||--0------0--0-------|---0------0--0-----|---0------0--0------|
D||----------3---------|-----------3-------|-----------3--------|
A||3-------------------|-3-----------------|--3-----------------|
E||--------------------|-------------------|--------------------|


E||------0-------------|-------0-----------|-------0------------|
B||----2---2-----------|-----2---2---------|-----2---2----------|
G||--0------0--0-------|---0------0--0-----|---0------0--0------|
D||----------3---------|-----------3-------|--------------------|
A||3-------------------|3------------------|-3---------2--------|
E||--------------------|-------------------|--------------------|


E||-----3--------------|----3--------------|------1-------------|
B||---1---1--0---------|---1--1-0----------|----0--0------------|
G||--2----------0------|--2--------0-------|---2-----2--2-------|
D||-----------2--------|---------2---------|----------3---------|
A||-0------------------|0------------------|--------------------|
E||--------------------|-------------------|--3-----------------|

E||-----1--------------|----0--------------|-----0--------------|
B||----0-0-------------|---3-3-------------|----3-3-------------|
G||---2---2--2---------|--0----0-0---------|---0----0--0--------|
D||--------3-----------|--------2----------|----------2---------|
A||--------------------|-------------------|----------0---------|
E||--3-----------------|-0-----------------|-0------------------|

E||------3------3------|----1----1---------|-------1-------1----|
B||-----3-3---3--------|---3-3--3----------|------3--3---3------|
G||----2----2----------|--2---2------------|-----1-----1--------|
D||---0----------------|-0-----------------|---0----------------|
A||--------------------|-------------------|--------------------|
E||--------------------|-------------------|--------------------|

                                      PRE BRIDGE

E||-----4---4----------|---------1----1----|----0-----1---------|
B||----1-1-1-----------|--------0-0-0------|---0----3-----------|
G||---1---1------------|------2----2-------|--2----2------------|
D||--0-----------------|-------------------|--------------------|
A||--------------------|-------------------|--------------------|
E||--------------------|----3--------------|-3----3-------------|

BRIDGE

E||-----0---0----------|-----0---0---------|-----0-----0--------|
B||----3-3-3-----------|----1-1-1----------|---1---1--1---------|
G||---2---2------------|---2---2-----------|--2-----2-----------|
D||--------------------|-------------------|--------------------|
A||--0-----0-----------|-------------------|--------------------|
E||--------------------|--3-----3----------|-2--------2---------|

E||-----1---1----------|--------1-----1----|---------1----1-----|
B||----1-1-1-----------|------3--3-3-------|------0---0--0------|
G||---2---2------------|----2-----2--------|----0-------0-------|
D||--------------------|--0----------------|--------------------|
A||--------------------|-------------------|--------------------|
E||-1------1-----------|-------------------|--3-----------------|

E||---------0----0-----|-3--1-----0--------|-----0-----0--------|
B||--------3-3-3-------|-------4-----------|----1-1--1----------|
G||-------0---0--------|--0--0--0----------|-2-2---2------------|
D||--------------------|-------------------|--0-----------------|
A||------------3-------|-0-----------------|--------------------|
E||----0---------------|-------------------|--------------------|

E||----0---0-----------|-----1----1--------|---4----3-----------|
B||---1-1-1------------|----1-1--1---------|---6----3-----------|
G||--2---2-------------|---2---2-----------|---5----4-----------|
D||-0------------------|-------------------|---3----5-----------|
A||--------------------|-------------------|---3----5-----------|
E||--------------------|--1----------------|---3----3-----------|




E||------0-------------|-------0-----------|-------0------------|
B||----2---2-----------|-----2---2---------|-----2---2----------|
G||--0------0--0-------|---0------0--0-----|---0------0--0------|
D||----------3---------|-----------3-------|-----------3--------|
A||3-------------------|-3-----------------|--3-----------------|
E||--------------------|-------------------|--------------------|


E||------0-------------|-------0-----------|-------0------------|
B||----2---2-----------|-----2---2---------|-----2---2----------|
G||--0------0--0-------|---0------0--0-----|---0------0--0------|
D||----------3---------|-----------3-------|--------------------|
A||3-------------------|3------------------|-3---------2--------|
E||--------------------|-------------------|--------------------|


E||-----3--------------|----3--------------|------1-------------|
B||---1---1--0---------|---1--1-0----------|----0--0------------|
G||--2----------0------|--2--------0-------|---2-----2--2-------|
D||-----------2--------|---------2---------|----------3---------|
A||-0------------------|0------------------|--------------------|
E||--------------------|-------------------|--3-----------------|

E||-----1--------------|----0--------------|-----0--------------|
B||----0-0-------------|---3-3-------------|----3-3-------------|
G||---2---2--2---------|--0----0-0---------|---0----0--0--------|
D||--------3-----------|--------2----------|----------2---------|
A||--------------------|-------------------|----------0---------|
E||--3-----------------|-0-----------------|-0------------------|

E||------3------3------|----1----1---------|-------1-------1----|
B||-----3-3---3--------|---3-3--3----------|------3--3---3------|
G||----2----2----------|--2---2------------|-----1-----1--------|
D||---0----------------|-0-----------------|---0----------------|
A||--------------------|-------------------|--------------------|
E||--------------------|-------------------|--------------------|

E||----4-----4---------|------1-----1------|--------------------|
B||---1-1--1-----------|----0--0--0--------|-3--3---------------|
G||--1---1-------------|--2-----2----------|-2--2---------------|
D||-0------------------|-------------------|-0--0---------------|
A||--------------------|-------------------|-0--0---------------|
E||--------------------|--3----------------|--------------------|

E||------0-------------|-------0-----------|-------0------------|
B||----2---2-----------|-----2---2---------|-----2---2----------|
G||--0------0--0-------|---0------0--0-----|---0------0--0------|
D||----------3---------|-----------3-------|-----------3--------|
A||3-------------------|-3-----------------|--3-----------------|
E||--------------------|-------------------|--------------------|

        C Chord
E||--0-----------------|MADE--BY-RYAN-F----|--------------------|
B||--1-----------------|-DO-NOT------------|--------------------|
G||--0-----------------|COPY---IN ANY WAY--|--------------------|
D||--2-----------------|WITHOUT CREDITING--|--------------------|
A||--3-----------------|RYAN--FIGUERAS-----|--------------------|
E||--3-----------------|-------------------|--------------------|
Tap to rate this tab
 
# A B C D E F G H I J K L M N O P Q R S T U V W X Y Z