Song name
# A B C D E F G H I J K L M N O P Q R S T U V W X Y Z

Nobuo Uematsu - To Zanarkand tab

This Tab is the intro up to the 1st chorus only but this sounds good

Chords to use:
Em C D G Am F

one thing d=down  in chorus


             Em                     D
e|--12----12-14-15-----|----10------10-12-14---------------------------|
B|--12----------12-----|----10------------12---------------------------|
G|---------------------|----------11-----------------------------------|
D|------14-------------|--------12-------------------------------------|
A|----14--------15-----|------12----------14---------------------------|
E|--12-----------------|----10-----------------------------------------|

            Em                         Em                     C
e|--7--7-7-7-----10------7----|-12---12--12--12-----15-|-8------8---8--|
B|--8-----8--10----7---7------|-12---------12---15-----|-8----8--8-8-8-|
G|--9---9-------------7-7-----|-12-----12--------------|-----9-9--9----|
D|--9-9--------------9--------|-14-14------------------|---10----------|
A|--7---------------9---------|-14---------------------|--10-----------|
E|-----------------7----------|-12---------------------|-8-------------|

Chorus:
         Em              D              G
e|--0---0-2-3-2-0--|------0------|------0------------------------------|
B|--0--0-----0-0---|---3-3-3-1---|-0--0-0------------------------------|
G|----0------------|----2--------|---0---------------------------------|
D|---2-------------|---0---------|--0----------------------------------|
A|--------0-3------|-------------|-------------------------------------|
E|--0--------------|-------------|-3-----------------------------------|

       Em                   D           G
e|--3d2d0---0-2-3--2-3--|---5-3-5--|-7---0-----------------------------|
B|--0------0------0-0---|---3------|----0-0----------------------------|
G|--------0-------------|---2------|---0-------------------------------|
D|-------2--------------|---0------|--0--------------------------------|
A|------------0-3-------|----------|-----------------------------------|
E|--0-------------------|----------|-3---------------------------------|
Tap to rate this tab
 
# A B C D E F G H I J K L M N O P Q R S T U V W X Y Z