Song name
# A B C D E F G H I J K L M N O P Q R S T U V W X Y Z

Nobuo Uematsu - Descendant Of Shinobi tab

DESCENDANT OF SHINOBI (YUFFIE'S THEME) by NOBUO UEMATSU. Album: FFVII OST (1997)
Arranged for two guitars.
:
#part1A X2
e-------3-------3-------3-------3-----|
B-------1-------0-------1-------0-----|
G-----0---0---0---0---0---0---0---0---|
D-------------------------------------|
A-----------2-------0-------2---------|
E---3---------------------------------|
#part1B  at the end
e-----5-7---|
B---8-------|
G-----------|
D-----------|
A-----------|
E-----------|
:
#part2A
e-------3-------3-------0-------0-------3-------3--------3-------3-----|
B-------0-------0-------1-------1-------0-------0--------0-------0-----|
G-----0---0---0---0---0---0---0---0---0---0---0---0----0---0---0---0---|
D-----------0------------------------------------------------0---------|
A-------------------3---------------2----------------2-----------------|
E---3-----------------------3---------------3--------------------------|
#part2B
e---10-7---7-8-7---5-7-------5-7---|
B----------------8---------8-------|
G----------------------------------|
D----------------------------------|
A----------------------------------|
E----------------------------------|
:
#part3A
e-------3-------3-------0-------0-------2-------2-------2-------2-----|
B-------0-------0-------1-------1-------3-------3-------3-------3-----|
G-----0---0---0---0---0---0---0---0---4---4---4---4---4---4---4---4---|
D-----------0-----------------------------------------------4---------|
A-------------------3---------------2---------------2-----------------|
E---3-----------------------3---------------2-------------------------|
#part3B
e---10-7---7-8-7---5-7-----15-14-12---|
B----------------8--------------------|
G-------------------------------------|
D-------------------------------------|
A-------------------------------------|
E-------------------------------------|
:
#part4A  repeat first part twice
e-------0-------0-------3-------3-----|-------0-------0--------2-------2-----|
B-------1-------1-------0-------0-----|-------1-------1--------3-------3-----|
G-----0---0---0---0---0---0---0---0---|-----0---0---0---0----4---4---4---4---|
D-----------2-------0-----------------|-----------2--------4-----------------|
A---3---------------------------------|---3------------------------2---------|
E---------------------------3---------|--------------------------------------|
#part4B
e---12-14-12-10-7---------5-7---15-14-12-12-14-12-10-7-7-12-7-5---5---|
B-------------------8-5-8---------------------------------------8-----|
G---------------------------------------------------------------------|
D---------------------------------------------------------------------|
A---------------------------------------------------------------------|
E---------------------------------------------------------------------|
:
#part5A
e-------0-------0-------3-2~-------3-------3-------3-------3-----|
B-------1-------1-------1-1~-------0-------0-------0-------0-----|
G-----2---2---2---2---0----------0---0---0---0---0---0---0---0---|
D-------------------0------------------0---------------0---------|
A---0------------------------------------------------------------|
E-----------0------------------3---------------3-----------------|
#part5B
e---7-----------7-10---|
B-----7-8-----8--------|
G----------------------|
D----------------------|
A----------------------|
E----------------------|
:
#part6A  repeat first part twice
e-------0-------2-------3-------3-----|-------0-------2-------2-0~--|
B-------1-------1-------0-------0-----|-------1-------1-------0-0~--|
G-----0---0---2---2---0---0---0---0---|-----0---0---2---2---2---0~--|
D-----------0-------------------------|-----------0-----------------|
A---3-----------------------2---------|---3---------------2---------|
E-------------------3-----------------|-------------------------0~--|
#part6B
e---12-12-8----7-10-----7-10-12-12-8----7-10-----7-10-12-12-14-12-11-12-14-15-----7-5-----|
B-----------10--------8--------------10--------8--------------------------------------8---|
G-----------------------------------------------------------------------------------------|
D-----------------------------------------------------------------------------------------|
A-----------------------------------------------------------------------------------------|
E-----------------------------------------------------------------------------------------|
:
#part7A
e-------0-------0-------0-------2-----|
B-------1-------1-------1-------1-----|
G-----0---0---0---0---0---0---2---2---|
D---------------------------0---------|
A---3---------------0-----------------|
E-----------3-------------------------|
#part7B
e---8-7---5-----|
B-------7---8---|
G---------------|
D---------------|
A---------------|
E---------------|
:
Loop.
Tabbed by Matte Kettunen in April 2004.
Tap to rate this tab
 
# A B C D E F G H I J K L M N O P Q R S T U V W X Y Z